  0
SECTION
  2
HEADER
  9
$ACADVER
  1
AC1009
  9
$DWGCODEPAGE
  3
ansi_1251
  9
$INSBASE
 10
0.0
 20
0.0
 30
0.0
  9
$EXTMIN
 10
-115.4999994277954
 20
-342.9999938964843
 30
-39.99999999999999
  9
$EXTMAX
 10
115.4999994277954
 20
174.6681103815995
 30
313.9999956130981
  9
$LIMMIN
 10
0.0
 20
0.0
  9
$LIMMAX
 10
420.0
 20
297.0
  9
$ORTHOMODE
 70
     0
  9
$REGENMODE
 70
     1
  9
$FILLMODE
 70
     1
  9
$QTEXTMODE
 70
     0
  9
$MIRRTEXT
 70
     1
  9
$DRAGMODE
 70
     2
  9
$LTSCALE
 40
1.0
  9
$OSMODE
 70
    37
  9
$ATTMODE
 70
     1
  9
$TEXTSIZE
 40
2.5
  9
$TRACEWID
 40
1.0
  9
$TEXTSTYLE
  7
STANDARD
  9
$CLAYER
  8
0
  9
$CELTYPE
  6
BYLAYER
  9
$CECOLOR
 62
   256
  9
$DIMSCALE
 40
1.0
  9
$DIMASZ
 40
2.5
  9
$DIMEXO
 40
0.625
  9
$DIMDLI
 40
3.75
  9
$DIMRND
 40
0.0
  9
$DIMDLE
 40
0.0
  9
$DIMEXE
 40
1.25
  9
$DIMTP
 40
0.0
  9
$DIMTM
 40
0.0
  9
$DIMTXT
 40
2.5
  9
$DIMCEN
 40
2.5
  9
$DIMTSZ
 40
0.0
  9
$DIMTOL
 70
     0
  9
$DIMLIM
 70
     0
  9
$DIMTIH
 70
     0
  9
$DIMTOH
 70
     0
  9
$DIMSE1
 70
     0
  9
$DIMSE2
 70
     0
  9
$DIMTAD
 70
     1
  9
$DIMZIN
 70
     8
  9
$DIMBLK
  1

  9
$DIMASO
 70
     1
  9
$DIMSHO
 70
     1
  9
$DIMPOST
  1

  9
$DIMAPOST
  1

  9
$DIMALT
 70
     0
  9
$DIMALTD
 70
     3
  9
$DIMALTF
 40
0.03937007874016
  9
$DIMLFAC
 40
1.0
  9
$DIMTOFL
 70
     1
  9
$DIMTVP
 40
0.0
  9
$DIMTIX
 70
     0
  9
$DIMSOXD
 70
     0
  9
$DIMSAH
 70
     0
  9
$DIMBLK1
  1

  9
$DIMBLK2
  1

  9
$DIMSTYLE
  2
ISO-25
  9
$DIMCLRD
 70
     0
  9
$DIMCLRE
 70
     0
  9
$DIMCLRT
 70
     0
  9
$DIMTFAC
 40
1.0
  9
$DIMGAP
 40
0.625
  9
$LUNITS
 70
     2
  9
$LUPREC
 70
     4
  9
$SKETCHINC
 40
1.0
  9
$FILLETRAD
 40
10.0
  9
$AUNITS
 70
     0
  9
$AUPREC
 70
     0
  9
$MENU
  1
.
  9
$ELEVATION
 40
0.0
  9
$PELEVATION
 40
0.0
  9
$THICKNESS
 40
0.0
  9
$LIMCHECK
 70
     0
  9
$CHAMFERA
 40
10.0
  9
$CHAMFERB
 40
10.0
  9
$SKPOLY
 70
     0
  9
$TDCREATE
 40
2305814.821215278
  9
$TDUPDATE
 40
2305814.821215289
  9
$TDINDWG
 40
0.0000000116
  9
$TDUSRTIMER
 40
0.0000000116
  9
$USRTIMER
 70
     1
  9
$ANGBASE
 50
0.0
  9
$ANGDIR
 70
     0
  9
$PDMODE
 70
     0
  9
$PDSIZE
 40
0.0
  9
$PLINEWID
 40
0.0
  9
$COORDS
 70
     1
  9
$SPLFRAME
 70
     0
  9
$SPLINETYPE
 70
     6
  9
$SPLINESEGS
 70
     8
  9
$ATTDIA
 70
     0
  9
$ATTREQ
 70
     1
  9
$HANDLING
 70
     1
  9
$HANDSEED
  5
97C
  9
$SURFTAB1
 70
     6
  9
$SURFTAB2
 70
     6
  9
$SURFTYPE
 70
     6
  9
$SURFU
 70
     6
  9
$SURFV
 70
     6
  9
$UCSNAME
  2

  9
$UCSORG
 10
0.0
 20
0.0
 30
0.0
  9
$UCSXDIR
 10
1.0
 20
0.0
 30
0.0
  9
$UCSYDIR
 10
0.0
 20
1.0
 30
0.0
  9
$PUCSNAME
  2

  9
$PUCSORG
 10
0.0
 20
0.0
 30
0.0
  9
$PUCSXDIR
 10
1.0
 20
0.0
 30
0.0
  9
$PUCSYDIR
 10
0.0
 20
1.0
 30
0.0
  9
$USERI1
 70
     0
  9
$USERI2
 70
     0
  9
$USERI3
 70
     0
  9
$USERI4
 70
     0
  9
$USERI5
 70
     0
  9
$USERR1
 40
0.0
  9
$USERR2
 40
0.0
  9
$USERR3
 40
0.0
  9
$USERR4
 40
0.0
  9
$USERR5
 40
0.0
  9
$WORLDVIEW
 70
     1
  9
$SHADEDGE
 70
     3
  9
$SHADEDIF
 70
    70
  9
$TILEMODE
 70
     1
  9
$MAXACTVP
 70
    64
  9
$PLIMCHECK
 70
     0
  9
$PEXTMIN
 10
1.000000000000000E+20
 20
1.000000000000000E+20
 30
1.000000000000000E+20
  9
$PEXTMAX
 10
-1.000000000000000E+20
 20
-1.000000000000000E+20
 30
-1.000000000000000E+20
  9
$PLIMMIN
 10
0.0
 20
0.0
  9
$PLIMMAX
 10
420.0
 20
297.0
  9
$UNITMODE
 70
     0
  9
$VISRETAIN
 70
     1
  9
$PLINEGEN
 70
     0
  9
$PSLTSCALE
 70
     1
  0
ENDSEC
  0
SECTION
  2
TABLES
  0
TABLE
  2
VPORT
 70
     1
  0
VPORT
  2
*ACTIVE
 70
     0
 10
0.0
 20
0.0
 11
1.0
 21
1.0
 12
0.0
 22
-151.5
 13
0.0
 23
0.0
 14
10.0
 24
10.0
 15
10.0
 25
10.0
 16
0.0
 26
0.0
 36
1.0
 17
0.0
 27
0.0
 37
0.0
 40
390.66
 41
0.6031331592689295
 42
50.0
 43
0.0
 44
0.0
 50
0.0
 51
0.0
 71
     0
 72
   100
 73
     1
 74
     3
 75
     0
 76
     0
 77
     0
 78
     0
  0
ENDTAB
  0
TABLE
  2
LTYPE
 70
    11
  0
LTYPE
  2
CONTINUOUS
 70
     0
  3
Solid line
 72
    65
 73
     0
 40
0.0
  0
LTYPE
  2
BORDER
 70
     0
  3
__ __ . __ __ . __ 
 72
    65
 73
     6
 40
0.875
 49
0.25
 49
-0.125
 49
0.25
 49
-0.125
 49
0.0
 49
-0.125
  0
LTYPE
  2
CENTER
 70
     0
  3
___ _ ___ _ ___ _ _
 72
    65
 73
     4
 40
1.125
 49
0.75
 49
-0.125
 49
0.125
 49
-0.125
  0
LTYPE
  2
DASHDOT
 70
     0
  3
_._._._._._._._._._
 72
    65
 73
     4
 40
0.5
 49
0.25
 49
-0.125
 49
0.0
 49
-0.125
  0
LTYPE
  2
DASHED
 70
     0
  3
_ _ _ _ _ _ _ _ _ _
 72
    65
 73
     2
 40
0.375
 49
0.25
 49
-0.125
  0
LTYPE
  2
DIVIDE
 70
     0
  3
__..__..__..__..__.
 72
    65
 73
     6
 40
0.625
 49
0.25
 49
-0.125
 49
0.0
 49
-0.125
 49
0.0
 49
-0.125
  0
LTYPE
  2
DOT
 70
     0
  3
...................
 72
    65
 73
     2
 40
0.125
 49
0.0
 49
-0.125
  0
LTYPE
  2
HIDDEN
 70
     0
  3
__ __ __ __ __ __ _
 72
    65
 73
     2
 40
0.1875
 49
0.125
 49
-0.0625
  0
LTYPE
  2
PHANTOM
 70
     0
  3
___ _ _ ___ _ _ ___
 72
    65
 73
     6
 40
1.25
 49
0.625
 49
-0.125
 49
0.125
 49
-0.125
 49
0.125
 49
-0.125
  0
LTYPE
  2
CUTTING
 70
     0
  3
________ _ _ ______
 72
    65
 73
     6
 40
1.4675
 49
1.0
 49
-0.0725
 49
0.125
 49
-0.0725
 49
0.125
 49
-0.0725
  0
LTYPE
  2
STITCH
 70
     0
  3
_ _ _ _ _ _ _ _ _ _
 72
    65
 73
     2
 40
0.145
 49
0.0725
 49
-0.0725
  0
ENDTAB
  0
TABLE
  2
LAYER
 70
     3
  0
LAYER
  2
0
 70
     0
 62
     7
  6
CONTINUOUS
  0
LAYER
  2
LAYER1
 70
     0
 62
     7
  6
CONTINUOUS
  0
LAYER
  2
PROEIMPORT_T4237_MK1_3DPL_
 70
     0
 62
     7
  6
CONTINUOUS
  0
ENDTAB
  0
TABLE
  2
STYLE
 70
     1
  0
STYLE
  2
STANDARD
 70
     0
 40
0.0
 41
1.0
 50
0.0
 71
     0
 42
2.5
  3
txt
  4

  0
ENDTAB
  0
TABLE
  2
VIEW
 70
     0
  0
ENDTAB
  0
TABLE
  2
UCS
 70
     0
  0
ENDTAB
  0
TABLE
  2
APPID
 70
     2
  0
APPID
  2
ACAD
 70
     0
  0
APPID
  2
ENCORE_SOFTWARE_VIACAD
 70
     0
  0
ENDTAB
  0
TABLE
  2
DIMSTYLE
 70
     1
  0
DIMSTYLE
  2
ISO-25
 70
     0
  3

  4

  5

  6

  7

 40
1.0
 41
2.5
 42
0.625
 43
3.75
 44
1.25
 45
0.0
 46
0.0
 47
0.0
 48
0.0
140
2.5
141
2.5
142
0.0
143
0.03937007874016
144
1.0
145
0.0
146
1.0
147
0.625
 71
     0
 72
     0
 73
     0
 74
     0
 75
     0
 76
     0
 77
     1
 78
     8
170
     0
171
     3
172
     1
173
     0
174
     0
175
     0
176
     0
177
     0
178
     0
  0
ENDTAB
  0
ENDSEC
  0
SECTION
  2
BLOCKS
  0
BLOCK
  8
0
  2
$MODEL_SPACE
 70
     0
 10
0.0
 20
0.0
 30
0.0
  3
$MODEL_SPACE
  1

  0
ENDBLK
  5
21
  8
0
  0
BLOCK
 67
     1
  8
0
  2
$PAPER_SPACE
 70
     0
 10
0.0
 20
0.0
 30
0.0
  3
$PAPER_SPACE
  1

  0
ENDBLK
  5
1D
 67
     1
  8
0
  0
ENDSEC
  0
SECTION
  2
ENTITIES
  0
POLYLINE
  5
4D
  8
PROEIMPORT_T4237_MK1_3DPL_
 62
     7
 66
     1
 10
0.0
 20
0.0
 30
0.0
 70
    64
 71
     4
 72
     2
  0
VERTEX
  5
4E
  8
0
 10
0.0
 20
10.0
 30
-10.0
 70
   192
  0
VERTEX
  5
4F
  8
0
 10
0.0
 20
10.0
 30
10.0
 70
   192
  0
VERTEX
  5
50
  8
0
 10
0.0
 20
-10.0
 30
10.0
 70
   192
  0
VERTEX
  5
51
  8
0
 10
0.0
 20
-10.0
 30
-10.0
 70
   192
  0
VERTEX
  5
52
  8
0
 10
0.0
 20
0.0
 30
0.0
 70
   128
 71
     1
 72
     2
 73
     4
  0
VERTEX
  5
53
  8
0
 10
0.0
 20
0.0
 30
0.0
 70
   128
 71
     4
 72
     2
 73
     3
  0
SEQEND
  5
54
  8
PROEIMPORT_T4237_MK1_3DPL_
 62
     7
  0
POLYLINE
  5
55
  8
PROEIMPORT_T4237_MK1_3DPL_
 62
     7
 66
     1
 10
0.0
 20
0.0
 30
0.0
 70
    64
 71
     4
 72
     2
  0
VERTEX
  5
56
  8
0
 10
-10.0
 20
10.0
 30
0.0
 70
   192
  0
VERTEX
  5
57
  8
0
 10
10.0
 20
10.0
 30
0.0
 70
   192
  0
VERTEX
  5
58
  8
0
 10
10.0
 20
-10.0
 30
0.0
 70
   192
  0
VERTEX
  5
59
  8
0
 10
-10.0
 20
-10.0
 30
0.0
 70
   192
  0
VERTEX
  5
5A
  8
0
 10
0.0
 20
0.0
 30
0.0
 70
   128
 71
     1
 72
     2
 73
     4
  0
VERTEX
  5
5B
  8
0
 10
0.0
 20
0.0
 30
0.0
 70
   128
 71
     4
 72
     2
 73
     3
  0
SEQEND
  5
5C
  8
PROEIMPORT_T4237_MK1_3DPL_
 62
     7
  0
POLYLINE
  5
5D
  8
PROEIMPORT_T4237_MK1_3DPL_
 62
     7
 66
     1
 10
0.0
 20
0.0
 30
0.0
 70
    64
 71
     4
 72
     2
  0
VERTEX
  5
5E
  8
0
 10
-10.0
 20
0.0
 30
-10.0
 70
   192
  0
VERTEX
  5
5F
  8
0
 10
-10.0
 20
0.0
 30
10.0
 70
   192
  0
VERTEX
  5
60
  8
0
 10
10.0
 20
0.0
 30
10.0
 70
   192
  0
VERTEX
  5
61
  8
0
 10
10.0
 20
0.0
 30
-10.0
 70
   192
  0
VERTEX
  5
62
  8
0
 10
0.0
 20
0.0
 30
0.0
 70
   128
 71
     1
 72
     2
 73
     4
  0
VERTEX
  5
63
  8
0
 10
0.0
 20
0.0
 30
0.0
 70
   128
 71
     4
 72
     2
 73
     3
  0
SEQEND
  5
64
  8
PROEIMPORT_T4237_MK1_3DPL_
 62
     7
  0
LINE
  5
65
  8
PROEIMPORT_T4237_MK1_3DPL_
 62
     7
 10
39.99999999999999
 20
-39.99999999999999
 30
0.0
 11
-40.0
 21
39.99999999999999
 31
0.0
  0
LINE
  5
66
  8
PROEIMPORT_T4237_MK1_3DPL_
 62
     7
 10
0.0
 20
-39.99999999999999
 30
-39.99999999999999
 11
0.0
 21
39.99999999999999
 31
39.99999999999999
  0
LINE
  5
67
  8
PROEIMPORT_T4237_MK1_3DPL_
 62
     7
 10
39.99999999999999
 20
0.0
 30
39.99999999999999
 11
-39.99999999999999
 21
0.0
 31
-39.99999999999999
  0
POLYLINE
  5
68
  8
LAYER1
 62
     7
 66
     1
 10
0.0
 20
0.0
 30
0.0
 70
    64
 71
   165
 72
   178
  0
VERTEX
  5
69
  8
0
 10
-0.0000000000000031
 20
0.0
 30
314.0
 70
   192
  0
VERTEX
  5
6A
  8
0
 10
-9.282927513122559
 20
-0.0000000000000036
 30
313.8226623535156
 70
   192
  0
VERTEX
  5
6B
  8
0
 10
-18.76135444641113
 20
-0.0000000000000036
 30
313.2118835449219
 70
   192
  0
VERTEX
  5
6C
  8
0
 10
-28.13862800598145
 20
-0.0000000000000036
 30
312.0731506347656
 70
   192
  0
VERTEX
  5
6D
  8
0
 10
-37.09515380859375
 20
-0.0000000000000036
 30
310.3650207519531
 70
   192
  0
VERTEX
  5
6E
  8
0
 10
-45.42493057250977
 20
-0.0000000000000036
 30
308.0870056152344
 70
   192
  0
VERTEX
  5
6F
  8
0
 10
-53.02531051635742
 20
-0.0000000000000036
 30
305.2592468261719
 70
   192
  0
VERTEX
  5
70
  8
0
 10
-59.89945602416992
 20
-0.0000000000000036
 30
301.9031677246094
 70
   192
  0
VERTEX
  5
71
  8
0
 10
-66.06583404541016
 20
-0.0000000000000035
 30
298.0207214355469
 70
   192
  0
VERTEX
  5
72
  8
0
 10
-71.58655548095703
 20
-0.0000000000000035
 30
293.5483093261719
 70
   192
  0
VERTEX
  5
73
  8
0
 10
-76.61422729492188
 20
-0.0000000000000035
 30
288.3963012695312
 70
   192
  0
VERTEX
  5
74
  8
0
 10
-81.27732849121094
 20
-0.0000000000000035
 30
282.467529296875
 70
   192
  0
VERTEX
  5
75
  8
0
 10
-85.69586944580078
 20
-0.0000000000000035
 30
275.5916137695312
 70
   192
  0
VERTEX
  5
76
  8
0
 10
-89.89859771728516
 20
-0.0000000000000035
 30
267.6426086425781
 70
   192
  0
VERTEX
  5
77
  8
0
 10
-93.74728393554688
 20
-0.0000000000000035
 30
258.8270874023438
 70
   192
  0
VERTEX
  5
78
  8
0
 10
-97.03067779541016
 20
-0.0000000000000035
 30
249.7480773925781
 70
   192
  0
VERTEX
  5
79
  8
0
 10
-99.74454498291016
 20
-0.0000000000000035
 30
240.6739959716797
 70
   192
  0
VERTEX
  5
7A
  8
0
 10
-101.9961700439453
 20
-0.0000000000000035
 30
231.6101531982422
 70
   192
  0
VERTEX
  5
7B
  8
0
 10
-103.9405670166016
 20
-0.0000000000000035
 30
222.2386322021484
 70
   192
  0
VERTEX
  5
7C
  8
0
 10
-105.6900100708008
 20
-0.0000000000000034
 30
212.1167755126953
 70
   192
  0
VERTEX
  5
7D
  8
0
 10
-107.307243347168
 20
-0.0000000000000034
 30
200.8048400878906
 70
   192
  0
VERTEX
  5
7E
  8
0
 10
-108.7672958374023
 20
-0.0000000000000034
 30
188.0505828857422
 70
   192
  0
VERTEX
  5
7F
  8
0
 10
-110.0337905883789
 20
-0.0000000000000034
 30
173.8799438476562
 70
   192
  0
VERTEX
  5
80
  8
0
 10
-111.1124420166016
 20
-0.0000000000000034
 30
158.3242950439453
 70
   192
  0
VERTEX
  5
81
  8
0
 10
-112.0217208862305
 20
-0.0000000000000033
 30
141.2671813964844
 70
   192
  0
VERTEX
  5
82
  8
0
 10
-112.7713012695312
 20
-0.0000000000000033
 30
122.5431900024414
 70
   192
  0
VERTEX
  5
83
  8
0
 10
-113.3992691040039
 20
-0.0000000000000033
 30
102.0445556640625
 70
   192
  0
VERTEX
  5
84
  8
0
 10
-113.9668197631836
 20
-0.0000000000000033
 30
79.67893981933594
 70
   192
  0
VERTEX
  5
85
  8
0
 10
-114.4938507080078
 20
-0.0000000000000032
 30
55.2982292175293
 70
   192
  0
VERTEX
  5
86
  8
0
 10
-114.9948196411133
 20
-0.0000000000000032
 30
28.77238082885742
 70
   192
  0
VERTEX
  5
87
  8
0
 10
-115.5
 20
-0.0000000000000011
 30
-0.0000000000000127
 70
   192
  0
VERTEX
  5
88
  8
0
 10
-114.2057495117188
 20
-53.97034454345703
 30
0.0000000000000062
 70
   192
  0
VERTEX
  5
89
  8
0
 10
-111.1160278320312
 20
-107.875358581543
 30
0.0000000000000251
 70
   192
  0
VERTEX
  5
8A
  8
0
 10
-106.2272109985352
 20
-161.6241760253906
 30
0.0000000000000439
 70
   192
  0
VERTEX
  5
8B
  8
0
 10
-99.54136657714844
 20
-215.1717224121094
 30
0.0000000000000626
 70
   192
  0
VERTEX
  5
8C
  8
0
 10
-91.06655883789062
 20
-268.4734802246094
 30
0.0000000000000813
 70
   192
  0
VERTEX
  5
8D
  8
0
 10
-80.82615661621094
 20
-321.4414367675781
 30
-0.0000000755752936
 70
   192
  0
VERTEX
  5
8E
  8
0
 10
-80.7234878540039
 20
-321.4485778808594
 30
11.67290306091309
 70
   192
  0
VERTEX
  5
8F
  8
0
 10
-80.6231460571289
 20
-321.4419555664062
 30
24.52660179138184
 70
   192
  0
VERTEX
  5
90
  8
0
 10
-80.52032470703125
 20
-321.41162109375
 30
37.63166809082031
 70
   192
  0
VERTEX
  5
91
  8
0
 10
-80.40950012207031
 20
-321.35400390625
 30
49.98081970214844
 70
   192
  0
VERTEX
  5
92
  8
0
 10
-80.28584289550781
 20
-321.2713623046875
 30
61.2318000793457
 70
   192
  0
VERTEX
  5
93
  8
0
 10
-80.14749145507812
 20
-321.1676635742188
 30
71.39183807373047
 70
   192
  0
VERTEX
  5
94
  8
0
 10
-79.99430847167969
 20
-321.0473022460938
 30
80.56892395019531
 70
   192
  0
VERTEX
  5
95
  8
0
 10
-79.82748413085938
 20
-320.9140930175781
 30
88.88776397705078
 70
   192
  0
VERTEX
  5
96
  8
0
 10
-79.64897918701172
 20
-320.7709350585938
 30
96.47386932373047
 70
   192
  0
VERTEX
  5
97
  8
0
 10
-79.46123504638672
 20
-320.6197509765625
 30
103.432243347168
 70
   192
  0
VERTEX
  5
98
  8
0
 10
-79.266845703125
 20
-320.4621276855469
 30
109.8284072875977
 70
   192
  0
VERTEX
  5
99
  8
0
 10
-79.06875610351562
 20
-320.2997131347656
 30
115.7018127441406
 70
   192
  0
VERTEX
  5
9A
  8
0
 10
-78.86984252929688
 20
-320.1343994140625
 30
121.0880813598633
 70
   192
  0
VERTEX
  5
9B
  8
0
 10
-78.67259979248047
 20
-319.9676513671875
 30
126.0292282104492
 70
   192
  0
VERTEX
  5
9C
  8
0
 10
-78.47866821289062
 20
-319.800537109375
 30
130.5719909667969
 70
   192
  0
VERTEX
  5
9D
  8
0
 10
-78.2890853881836
 20
-319.6338195800781
 30
134.7618865966797
 70
   192
  0
VERTEX
  5
9E
  8
0
 10
-78.10459899902344
 20
-319.4681701660156
 30
138.6378326416016
 70
   192
  0
VERTEX
  5
9F
  8
0
 10
-77.92586517333984
 20
-319.3042602539062
 30
142.2296600341797
 70
   192
  0
VERTEX
  5
A0
  8
0
 10
-77.75340270996094
 20
-319.1428833007812
 30
145.5597229003906
 70
   192
  0
VERTEX
  5
A1
  8
0
 10
-77.58660888671875
 20
-318.98388671875
 30
148.6656036376953
 70
   192
  0
VERTEX
  5
A2
  8
0
 10
-77.421142578125
 20
-318.8233642578125
 30
151.6453857421875
 70
   192
  0
VERTEX
  5
A3
  8
0
 10
-77.25013732910156
 20
-318.6546325683594
 30
154.6272583007812
 70
   192
  0
VERTEX
  5
A4
  8
0
 10
-77.0711441040039
 20
-318.4749755859375
 30
157.6508636474609
 70
   192
  0
VERTEX
  5
A5
  8
0
 10
-76.88697814941406
 20
-318.2868347167969
 30
160.6667938232422
 70
   192
  0
VERTEX
  5
A6
  8
0
 10
-76.69877624511719
 20
-318.0911254882812
 30
163.6581420898438
 70
   192
  0
VERTEX
  5
A7
  8
0
 10
-76.50521087646484
 20
-317.8862915039062
 30
166.6453399658203
 70
   192
  0
VERTEX
  5
A8
  8
0
 10
-76.3056411743164
 20
-317.6715393066406
 30
169.6357879638672
 70
   192
  0
VERTEX
  5
A9
  8
0
 10
-76.09944915771484
 20
-317.4471740722656
 30
172.6249389648438
 70
   192
  0
VERTEX
  5
AA
  8
0
 10
-75.8835678100586
 20
-317.2134094238281
 30
175.6191101074219
 70
   192
  0
VERTEX
  5
AB
  8
0
 10
-75.64957427978516
 20
-316.9664916992188
 30
178.6787567138672
 70
   192
  0
VERTEX
  5
AC
  8
0
 10
-75.3812484741211
 20
-316.6965942382812
 30
181.9317932128906
 70
   192
  0
VERTEX
  5
AD
  8
0
 10
-75.05730438232422
 20
-316.3917236328125
 30
185.5184173583984
 70
   192
  0
VERTEX
  5
AE
  8
0
 10
-74.65412139892578
 20
-316.0442504882812
 30
189.5266418457031
 70
   192
  0
VERTEX
  5
AF
  8
0
 10
-74.14356994628906
 20
-315.65185546875
 30
193.9907836914062
 70
   192
  0
VERTEX
  5
B0
  8
0
 10
-73.49757385253906
 20
-315.2178344726562
 30
198.8859100341797
 70
   192
  0
VERTEX
  5
B1
  8
0
 10
-72.7043228149414
 20
-314.7611389160156
 30
204.0330810546875
 70
   192
  0
VERTEX
  5
B2
  8
0
 10
-71.78987121582031
 20
-314.3126831054688
 30
209.115478515625
 70
   192
  0
VERTEX
  5
B3
  8
0
 10
-70.80217742919922
 20
-313.8984985351562
 30
213.8615112304688
 70
   192
  0
VERTEX
  5
B4
  8
0
 10
-69.78659057617188
 20
-313.5266723632812
 30
218.1515350341797
 70
   192
  0
VERTEX
  5
B5
  8
0
 10
-68.76630401611328
 20
-313.1930236816406
 30
222.0103607177734
 70
   192
  0
VERTEX
  5
B6
  8
0
 10
-67.74816131591797
 20
-312.8918151855469
 30
225.5046234130859
 70
   192
  0
VERTEX
  5
B7
  8
0
 10
-66.7347183227539
 20
-312.6189880371094
 30
228.6882934570312
 70
   192
  0
VERTEX
  5
B8
  8
0
 10
-65.7285385131836
 20
-312.3721313476562
 30
231.5992889404297
 70
   192
  0
VERTEX
  5
B9
  8
0
 10
-64.73426818847656
 20
-312.1500244140625
 30
234.2607421875
 70
   192
  0
VERTEX
  5
BA
  8
0
 10
-63.75715637207031
 20
-311.9518127441406
 30
236.68994140625
 70
   192
  0
VERTEX
  5
BB
  8
0
 10
-62.79803848266602
 20
-311.7755737304688
 30
238.9119262695312
 70
   192
  0
VERTEX
  5
BC
  8
0
 10
-61.85109329223633
 20
-311.6185302734375
 30
240.9617919921875
 70
   192
  0
VERTEX
  5
BD
  8
0
 10
-60.90918731689453
 20
-311.4783325195312
 30
242.8704528808594
 70
   192
  0
VERTEX
  5
BE
  8
0
 10
-59.97264862060547
 20
-311.3539428710938
 30
244.6495361328125
 70
   192
  0
VERTEX
  5
BF
  8
0
 10
-59.05043029785156
 20
-311.2453002929688
 30
246.2945861816406
 70
   192
  0
VERTEX
  5
C0
  8
0
 10
-58.15529251098633
 20
-311.1524353027344
 30
247.7972106933594
 70
   192
  0
VERTEX
  5
C1
  8
0
 10
-57.2989616394043
 20
-311.0749206542969
 30
249.1534271240234
 70
   192
  0
VERTEX
  5
C2
  8
0
 10
-56.49019241333008
 20
-311.0116882324219
 30
250.3652191162109
 70
   192
  0
VERTEX
  5
C3
  8
0
 10
-55.73114776611328
 20
-310.9606628417969
 30
251.4444580078125
 70
   192
  0
VERTEX
  5
C4
  8
0
 10
-55.01209259033203
 20
-310.9194030761719
 30
252.4174652099609
 70
   192
  0
VERTEX
  5
C5
  8
0
 10
-54.31241226196289
 20
-310.8854370117188
 30
253.3201751708984
 70
   192
  0
VERTEX
  5
C6
  8
0
 10
-53.60903930664062
 20
-310.85693359375
 30
254.1858825683594
 70
   192
  0
VERTEX
  5
C7
  8
0
 10
-52.88876724243164
 20
-310.8331604003906
 30
255.0311431884766
 70
   192
  0
VERTEX
  5
C8
  8
0
 10
-52.15401840209961
 20
-310.8142395019531
 30
255.8523559570312
 70
   192
  0
VERTEX
  5
C9
  8
0
 10
-51.41164398193359
 20
-310.8003234863281
 30
256.6417846679688
 70
   192
  0
VERTEX
  5
CA
  8
0
 10
-50.66091537475586
 20
-310.7912292480469
 30
257.4006652832031
 70
   192
  0
VERTEX
  5
CB
  8
0
 10
-49.8945198059082
 20
-310.7867126464844
 30
258.1359558105469
 70
   192
  0
VERTEX
  5
CC
  8
0
 10
-49.10962295532227
 20
-310.7860412597656
 30
258.8500061035156
 70
   192
  0
VERTEX
  5
CD
  8
0
 10
-48.30509185791016
 20
-310.7887878417969
 30
259.5436401367188
 70
   192
  0
VERTEX
  5
CE
  8
0
 10
-47.47746658325195
 20
-310.7947082519531
 30
260.2195129394531
 70
   192
  0
VERTEX
  5
CF
  8
0
 10
-46.60679244995117
 20
-310.8038330078125
 30
260.8921508789062
 70
   192
  0
VERTEX
  5
D0
  8
0
 10
-45.64954376220703
 20
-310.8167114257812
 30
261.5894775390625
 70
   192
  0
VERTEX
  5
D1
  8
0
 10
-44.55004119873047
 20
-310.8346252441406
 30
262.3399963378906
 70
   192
  0
VERTEX
  5
D2
  8
0
 10
-43.27429580688477
 20
-310.8591918945312
 30
263.1480102539062
 70
   192
  0
VERTEX
  5
D3
  8
0
 10
-41.83058166503906
 20
-310.8909301757812
 30
263.9874572753906
 70
   192
  0
VERTEX
  5
D4
  8
0
 10
-40.24618911743164
 20
-310.9295959472656
 30
264.8253784179688
 70
   192
  0
VERTEX
  5
D5
  8
0
 10
-38.54084777832031
 20
-310.9748229980469
 30
265.6393737792969
 70
   192
  0
VERTEX
  5
D6
  8
0
 10
-36.71200180053711
 20
-311.02734375
 30
266.4214172363281
 70
   192
  0
VERTEX
  5
D7
  8
0
 10
-34.72562408447266
 20
-311.0889587402344
 30
267.1756591796875
 70
   192
  0
VERTEX
  5
D8
  8
0
 10
-32.52759170532227
 20
-311.1619567871094
 30
267.9078063964844
 70
   192
  0
VERTEX
  5
D9
  8
0
 10
-30.08610916137695
 20
-311.2476806640625
 30
268.6095275878906
 70
   192
  0
VERTEX
  5
DA
  8
0
 10
-27.40483856201172
 20
-311.3457641601562
 30
269.2608032226562
 70
   192
  0
VERTEX
  5
DB
  8
0
 10
-24.48415756225586
 20
-311.4548645019531
 30
269.8469543457031
 70
   192
  0
VERTEX
  5
DC
  8
0
 10
-21.29440307617188
 20
-311.5726013183594
 30
270.3616333007812
 70
   192
  0
VERTEX
  5
DD
  8
0
 10
-17.79520988464355
 20
-311.69482421875
 30
270.798583984375
 70
   192
  0
VERTEX
  5
DE
  8
0
 10
-13.94484424591064
 20
-311.81494140625
 30
271.1492309570312
 70
   192
  0
VERTEX
  5
DF
  8
0
 10
-9.713741302490234
 20
-311.922607421875
 30
271.4043273925781
 70
   192
  0
VERTEX
  5
E0
  8
0
 10
-5.085226058959961
 20
-312.0024719238281
 30
271.5577392578125
 70
   192
  0
VERTEX
  5
E1
  8
0
 10
-0.0001185354194604
 20
-312.0359497070312
 30
271.6079406738281
 70
   192
  0
VERTEX
  5
E2
  8
0
 10
0.0000000000000017
 20
-260.6866149902344
 30
283.6134643554688
 70
   192
  0
VERTEX
  5
E3
  8
0
 10
0.0000000000000033
 20
-209.1233367919922
 30
293.6316528320312
 70
   192
  0
VERTEX
  5
E4
  8
0
 10
0.0000000000000048
 20
-157.3102722167969
 30
301.6750793457031
 70
   192
  0
VERTEX
  5
E5
  8
0
 10
0.0000000000000063
 20
-105.2106094360352
 30
307.7508544921875
 70
   192
  0
VERTEX
  5
E6
  8
0
 10
0.0000000000000078
 20
-52.78672409057617
 30
311.8605346679688
 70
   192
  0
VERTEX
  5
E7
  8
0
 10
-28.4326000213623
 20
-95.37435913085938
 30
306.5518188476562
 70
   192
  0
VERTEX
  5
E8
  8
0
 10
-25.08952522277832
 20
-190.2474060058594
 30
295.0510864257812
 70
   192
  0
VERTEX
  5
E9
  8
0
 10
-21.19253540039062
 20
-285.1640930175781
 30
276.8363342285156
 70
   192
  0
VERTEX
  5
EA
  8
0
 10
-49.43729400634766
 20
-95.49456024169922
 30
300.5065307617188
 70
   192
  0
VERTEX
  5
EB
  8
0
 10
-42.97931289672852
 20
-190.5066833496094
 30
290.223876953125
 70
   192
  0
VERTEX
  5
EC
  8
0
 10
-35.53665542602539
 20
-285.5162963867188
 30
273.3467407226562
 70
   192
  0
VERTEX
  5
ED
  8
0
 10
-64.1176528930664
 20
-95.64447021484375
 30
291.5524291992188
 70
   192
  0
VERTEX
  5
EE
  8
0
 10
-55.47231674194336
 20
-190.8221130371094
 30
283.2323303222656
 70
   192
  0
VERTEX
  5
EF
  8
0
 10
-45.4943962097168
 20
-285.9681396484375
 30
268.4665222167969
 70
   192
  0
VERTEX
  5
F0
  8
0
 10
-76.40522766113281
 20
-95.86693572998047
 30
277.634521484375
 70
   192
  0
VERTEX
  5
F1
  8
0
 10
-66.28446197509766
 20
-191.2839813232422
 30
272.3297729492188
 70
   192
  0
VERTEX
  5
F2
  8
0
 10
-54.46678924560547
 20
-286.6470031738281
 30
260.7904052734375
 70
   192
  0
VERTEX
  5
F3
  8
0
 10
-87.65432739257812
 20
-96.25096130371094
 30
255.6292572021484
 70
   192
  0
VERTEX
  5
F4
  8
0
 10
-76.7326431274414
 20
-192.0742492675781
 30
254.3130645751953
 70
   192
  0
VERTEX
  5
F5
  8
0
 10
-63.65545272827148
 20
-287.8282470703125
 30
247.0994567871094
 70
   192
  0
VERTEX
  5
F6
  8
0
 10
-95.23722076416016
 20
-96.70329284667969
 30
230.8125610351562
 70
   192
  0
VERTEX
  5
F7
  8
0
 10
-84.25018310546875
 20
-193.0019836425781
 30
233.0244598388672
 70
   192
  0
VERTEX
  5
F8
  8
0
 10
-70.64152526855469
 20
-289.2314453125
 30
229.7572021484375
 70
   192
  0
VERTEX
  5
F9
  8
0
 10
-98.48677825927734
 20
-96.97248840332031
 30
215.1315155029297
 70
   192
  0
VERTEX
  5
FA
  8
0
 10
-87.59686279296875
 20
-193.5543823242188
 30
219.3395843505859
 70
   192
  0
VERTEX
  5
FB
  8
0
 10
-73.80297088623047
 20
-290.0745849609375
 30
218.3597106933594
 70
   192
  0
VERTEX
  5
FC
  8
0
 10
-100.974983215332
 20
-97.21908569335938
 30
199.2854614257812
 70
   192
  0
VERTEX
  5
FD
  8
0
 10
-90.18510437011719
 20
-194.0613555908203
 30
205.4958648681641
 70
   192
  0
VERTEX
  5
FE
  8
0
 10
-76.2095947265625
 20
-290.8551025390625
 30
206.8381042480469
 70
   192
  0
VERTEX
  5
FF
  8
0
 10
-103.2594680786133
 20
-97.49288177490234
 30
179.5239562988281
 70
   192
  0
VERTEX
  5
100
  8
0
 10
-92.57875061035156
 20
-194.6257629394531
 30
188.1811828613281
 70
   192
  0
VERTEX
  5
101
  8
0
 10
-78.3648910522461
 20
-291.7340393066406
 30
192.4046478271484
 70
   192
  0
VERTEX
  5
102
  8
0
 10
-105.2021331787109
 20
-97.76439666748047
 30
156.31494140625
 70
   192
  0
VERTEX
  5
103
  8
0
 10
-94.61151885986328
 20
-195.1881256103516
 30
167.8254547119141
 70
   192
  0
VERTEX
  5
104
  8
0
 10
-80.08206939697266
 20
-292.6259460449219
 30
175.465576171875
 70
   192
  0
VERTEX
  5
105
  8
0
 10
-107.443733215332
 20
-98.16193389892578
 30
119.0768661499023
 70
   192
  0
VERTEX
  5
106
  8
0
 10
-97.13775634765625
 20
-196.0120544433594
 30
132.9314422607422
 70
   192
  0
VERTEX
  5
107
  8
0
 10
-82.2828140258789
 20
-293.9578857421875
 30
143.8598937988281
 70
   192
  0
VERTEX
  5
108
  8
0
 10
-109.8094100952148
 20
-98.47244262695312
 30
65.28340911865234
 70
   192
  0
VERTEX
  5
109
  8
0
 10
-99.92164611816406
 20
-196.6691589355469
 30
77.02549743652344
 70
   192
  0
VERTEX
  5
10A
  8
0
 10
-84.6968765258789
 20
-295.1070556640625
 30
87.21556091308594
 70
   192
  0
VERTEX
  5
10B
  8
0
 10
-110.9845199584961
 20
-98.31262969970703
 30
28.85388374328613
 70
   192
  0
VERTEX
  5
10C
  8
0
 10
-101.2445831298828
 20
-196.3694152832031
 30
35.27983093261719
 70
   192
  0
VERTEX
  5
10D
  8
0
 10
-85.69622802734375
 20
-294.7733459472656
 30
41.04349517822266
 70
   192
  0
VERTEX
  5
10E
  8
0
 10
0.0
 20
0.0
 30
0.0
 70
   128
 71
     1
 72
     2
 73
   126
  0
VERTEX
  5
10F
  8
0
 10
0.0
 20
0.0
 30
0.0
 70
   128
 71
   126
 72
     2
 73
     3
  0
VERTEX
  5
110
  8
0
 10
0.0
 20
0.0
 30
0.0
 70
   128
 71
   127
 72
     3
 73
     4
  0
VERTEX
  5
111
  8
0
 10
0.0
 20
0.0
 30
0.0
 70
   128
 71
     5
 72
   127
 73
     4
  0
VERTEX
  5
112
  8
0
 10
0.0
 20
0.0
 30
0.0
 70
   128
 71
     5
 72
     6
 73
   127
  0
VERTEX
  5
113
  8
0
 10
0.0
 20
0.0
 30
0.0
 70
   128
 71
   127
 72
     6
 73
   130
  0
VERTEX
  5
114
  8
0
 10
0.0
 20
0.0
 30
0.0
 70
   128
 71
   131
 72
   130
 73
   133
 74
   134
  0
VERTEX
  5
115
  8
0
 10
0.0
 20
0.0
 30
0.0
 70
   128
 71
   134
 72
   135
 73
   132
 74
   131
  0
VERTEX
  5
116
  8
0
 10
0.0
 20
0.0
 30
0.0
 70
   128
 71
   137
 72
   134
 73
   133
 74
   136
  0
VERTEX
  5
117
  8
0
 10
0.0
 20
0.0
 30
0.0
 70
   128
 71
   136
 72
   139
 73
   140
 74
   137
  0
VERTEX
  5
118
  8
0
 10
0.0
 20
0.0
 30
0.0
 70
   128
 71
    15
 72
   136
 73
    14
  0
VERTEX
  5
119
  8
0
 10
0.0
 20
0.0
 30
0.0
 70
   128
 71
    15
 72
   139
 73
   136
  0
VERTEX
  5
11A
  8
0
 10
0.0
 20
0.0
 30
0.0
 70
   128
 71
    15
 72
    16
 73
   139
  0
VERTEX
  5
11B
  8
0
 10
0.0
 20
0.0
 30
0.0
 70
   128
 71
   139
 72
    16
 73
    17
  0
VERTEX
  5
11C
  8
0
 10
0.0
 20
0.0
 30
0.0
 70
   128
 71
   142
 72
    17
 73
    18
  0
VERTEX
  5
11D
  8
0
 10
0.0
 20
0.0
 30
0.0
 70
   128
 71
    19
 72
   142
 73
    18
  0
VERTEX
  5
11E
  8
0
 10
0.0
 20
0.0
 30
0.0
 70
   128
 71
    19
 72
    20
 73
   142
  0
VERTEX
  5
11F
  8
0
 10
0.0
 20
0.0
 30
0.0
 70
   128
 71
   142
 72
    20
 73
   145
  0
VERTEX
  5
120
  8
0
 10
0.0
 20
0.0
 30
0.0
 70
   128
 71
   146
 72
   145
 73
   148
 74
   149
  0
VERTEX
  5
121
  8
0
 10
0.0
 20
0.0
 30
0.0
 70
   128
 71
   149
 72
   150
 73
   147
 74
   146
  0
VERTEX
  5
122
  8
0
 10
0.0
 20
0.0
 30
0.0
 70
   128
 71
   152
 72
   149
 73
   148
 74
   151
  0
VERTEX
  5
123
  8
0
 10
0.0
 20
0.0
 30
0.0
 70
   128
 71
   151
 72
   154
 73
   155
 74
   152
  0
VERTEX
  5
124
  8
0
 10
0.0
 20
0.0
 30
0.0
 70
   128
 71
    24
 72
   151
 73
    23
  0
VERTEX
  5
125
  8
0
 10
0.0
 20
0.0
 30
0.0
 70
   128
 71
    24
 72
   154
 73
   151
  0
VERTEX
  5
126
  8
0
 10
0.0
 20
0.0
 30
0.0
 70
   128
 71
    24
 72
    25
 73
   154
  0
VERTEX
  5
127
  8
0
 10
0.0
 20
0.0
 30
0.0
 70
   128
 71
   154
 72
    25
 73
    26
  0
VERTEX
  5
128
  8
0
 10
0.0
 20
0.0
 30
0.0
 70
   128
 71
   157
 72
    26
 73
    27
  0
VERTEX
  5
129
  8
0
 10
0.0
 20
0.0
 30
0.0
 70
   128
 71
    28
 72
   157
 73
    27
  0
VERTEX
  5
12A
  8
0
 10
0.0
 20
0.0
 30
0.0
 70
   128
 71
    28
 72
   160
 73
   157
  0
VERTEX
  5
12B
  8
0
 10
0.0
 20
0.0
 30
0.0
 70
   128
 71
    28
 72
    29
 73
   160
  0
VERTEX
  5
12C
  8
0
 10
0.0
 20
0.0
 30
0.0
 70
   128
 71
   160
 72
    29
 73
    30
  0
VERTEX
  5
12D
  8
0
 10
0.0
 20
0.0
 30
0.0
 70
   128
 71
   163
 72
    30
 73
    32
  0
VERTEX
  5
12E
  8
0
 10
0.0
 20
0.0
 30
0.0
 70
   128
 71
    33
 72
   163
 73
    32
  0
VERTEX
  5
12F
  8
0
 10
0.0
 20
0.0
 30
0.0
 70
   128
 71
    33
 72
    34
 73
   163
  0
VERTEX
  5
130
  8
0
 10
0.0
 20
0.0
 30
0.0
 70
   128
 71
   163
 72
    34
 73
   164
  0
VERTEX
  5
131
  8
0
 10
0.0
 20
0.0
 30
0.0
 70
   128
 71
   161
 72
   164
 73
   165
 74
   162
  0
VERTEX
  5
132
  8
0
 10
0.0
 20
0.0
 30
0.0
 70
   128
 71
   162
 72
   159
 73
   158
 74
   161
  0
VERTEX
  5
133
  8
0
 10
0.0
 20
0.0
 30
0.0
 70
   128
 71
    50
 72
   162
 73
    49
  0
VERTEX
  5
134
  8
0
 10
0.0
 20
0.0
 30
0.0
 70
   128
 71
    50
 72
   159
 73
   162
  0
VERTEX
  5
135
  8
0
 10
0.0
 20
0.0
 30
0.0
 70
   128
 71
    50
 72
    51
 73
   159
  0
VERTEX
  5
136
  8
0
 10
0.0
 20
0.0
 30
0.0
 70
   128
 71
   159
 72
    51
 73
    52
  0
VERTEX
  5
137
  8
0
 10
0.0
 20
0.0
 30
0.0
 70
   128
 71
    53
 72
   159
 73
    52
  0
VERTEX
  5
138
  8
0
 10
0.0
 20
0.0
 30
0.0
 70
   128
 71
    53
 72
    54
 73
   159
  0
VERTEX
  5
139
  8
0
 10
0.0
 20
0.0
 30
0.0
 70
   128
 71
   159
 72
    54
 73
    55
  0
VERTEX
  5
13A
  8
0
 10
0.0
 20
0.0
 30
0.0
 70
   128
 71
    56
 72
   159
 73
    55
  0
VERTEX
  5
13B
  8
0
 10
0.0
 20
0.0
 30
0.0
 70
   128
 71
    56
 72
    57
 73
   159
  0
VERTEX
  5
13C
  8
0
 10
0.0
 20
0.0
 30
0.0
 70
   128
 71
   159
 72
    57
 73
    58
  0
VERTEX
  5
13D
  8
0
 10
0.0
 20
0.0
 30
0.0
 70
   128
 71
    59
 72
   159
 73
    58
  0
VERTEX
  5
13E
  8
0
 10
0.0
 20
0.0
 30
0.0
 70
   128
 71
    59
 72
    60
 73
   159
  0
VERTEX
  5
13F
  8
0
 10
0.0
 20
0.0
 30
0.0
 70
   128
 71
   159
 72
    60
 73
    61
  0
VERTEX
  5
140
  8
0
 10
0.0
 20
0.0
 30
0.0
 70
   128
 71
    62
 72
   159
 73
    61
  0
VERTEX
  5
141
  8
0
 10
0.0
 20
0.0
 30
0.0
 70
   128
 71
    62
 72
   156
 73
   159
  0
VERTEX
  5
142
  8
0
 10
0.0
 20
0.0
 30
0.0
 70
   128
 71
    62
 72
    63
 73
   156
  0
VERTEX
  5
143
  8
0
 10
0.0
 20
0.0
 30
0.0
 70
   128
 71
   156
 72
    63
 73
    64
  0
VERTEX
  5
144
  8
0
 10
0.0
 20
0.0
 30
0.0
 70
   128
 71
    65
 72
   156
 73
    64
  0
VERTEX
  5
145
  8
0
 10
0.0
 20
0.0
 30
0.0
 70
   128
 71
    65
 72
    66
 73
   156
  0
VERTEX
  5
146
  8
0
 10
0.0
 20
0.0
 30
0.0
 70
   128
 71
   156
 72
    66
 73
    67
  0
VERTEX
  5
147
  8
0
 10
0.0
 20
0.0
 30
0.0
 70
   128
 71
    68
 72
   156
 73
    67
  0
VERTEX
  5
148
  8
0
 10
0.0
 20
0.0
 30
0.0
 70
   128
 71
    68
 72
    69
 73
   156
  0
VERTEX
  5
149
  8
0
 10
0.0
 20
0.0
 30
0.0
 70
   128
 71
   156
 72
    69
 73
   153
  0
VERTEX
  5
14A
  8
0
 10
0.0
 20
0.0
 30
0.0
 70
   128
 71
   152
 72
   153
 73
   150
 74
   149
  0
VERTEX
  5
14B
  8
0
 10
0.0
 20
0.0
 30
0.0
 70
   128
 71
   155
 72
   156
 73
   153
 74
   152
  0
VERTEX
  5
14C
  8
0
 10
0.0
 20
0.0
 30
0.0
 70
   128
 71
   158
 72
   155
 73
   154
 74
   157
  0
VERTEX
  5
14D
  8
0
 10
0.0
 20
0.0
 30
0.0
 70
   128
 71
   161
 72
   160
 73
   163
 74
   164
  0
VERTEX
  5
14E
  8
0
 10
0.0
 20
0.0
 30
0.0
 70
   128
 71
   158
 72
   157
 73
   160
 74
   161
  0
VERTEX
  5
14F
  8
0
 10
0.0
 20
0.0
 30
0.0
 70
   128
 71
     6
 72
     7
 73
   130
  0
VERTEX
  5
150
  8
0
 10
0.0
 20
0.0
 30
0.0
 70
   128
 71
   130
 72
     7
 73
     8
  0
VERTEX
  5
151
  8
0
 10
0.0
 20
0.0
 30
0.0
 70
   128
 71
     9
 72
   130
 73
     8
  0
VERTEX
  5
152
  8
0
 10
0.0
 20
0.0
 30
0.0
 70
   128
 71
     9
 72
   133
 73
   130
  0
VERTEX
  5
153
  8
0
 10
0.0
 20
0.0
 30
0.0
 70
   128
 71
     9
 72
    10
 73
   133
  0
VERTEX
  5
154
  8
0
 10
0.0
 20
0.0
 30
0.0
 70
   128
 71
   133
 72
    10
 73
    11
  0
VERTEX
  5
155
  8
0
 10
0.0
 20
0.0
 30
0.0
 70
   128
 71
    12
 72
   133
 73
    11
  0
VERTEX
  5
156
  8
0
 10
0.0
 20
0.0
 30
0.0
 70
   128
 71
    12
 72
   136
 73
   133
  0
VERTEX
  5
157
  8
0
 10
0.0
 20
0.0
 30
0.0
 70
   128
 71
    12
 72
    13
 73
   136
  0
VERTEX
  5
158
  8
0
 10
0.0
 20
0.0
 30
0.0
 70
   128
 71
   136
 72
    13
 73
    14
  0
VERTEX
  5
159
  8
0
 10
0.0
 20
0.0
 30
0.0
 70
   128
 71
    20
 72
    21
 73
   145
  0
VERTEX
  5
15A
  8
0
 10
0.0
 20
0.0
 30
0.0
 70
   128
 71
   145
 72
    21
 73
   148
  0
VERTEX
  5
15B
  8
0
 10
0.0
 20
0.0
 30
0.0
 70
   128
 71
   148
 72
    21
 73
    22
  0
VERTEX
  5
15C
  8
0
 10
0.0
 20
0.0
 30
0.0
 70
   128
 71
    23
 72
   148
 73
    22
  0
VERTEX
  5
15D
  8
0
 10
0.0
 20
0.0
 30
0.0
 70
   128
 71
    23
 72
   151
 73
   148
  0
VERTEX
  5
15E
  8
0
 10
0.0
 20
0.0
 30
0.0
 70
   128
 71
    30
 72
    31
 73
    32
  0
VERTEX
  5
15F
  8
0
 10
0.0
 20
0.0
 30
0.0
 70
   128
 71
    34
 72
    35
 73
   164
  0
VERTEX
  5
160
  8
0
 10
0.0
 20
0.0
 30
0.0
 70
   128
 71
   164
 72
    35
 73
    36
  0
VERTEX
  5
161
  8
0
 10
0.0
 20
0.0
 30
0.0
 70
   128
 71
   165
 72
    36
 73
    37
  0
VERTEX
  5
162
  8
0
 10
0.0
 20
0.0
 30
0.0
 70
   128
 71
    38
 72
   165
 73
    37
  0
VERTEX
  5
163
  8
0
 10
0.0
 20
0.0
 30
0.0
 70
   128
 71
    38
 72
    39
 73
   165
  0
VERTEX
  5
164
  8
0
 10
0.0
 20
0.0
 30
0.0
 70
   128
 71
   165
 72
    39
 73
    40
  0
VERTEX
  5
165
  8
0
 10
0.0
 20
0.0
 30
0.0
 70
   128
 71
    41
 72
   165
 73
    40
  0
VERTEX
  5
166
  8
0
 10
0.0
 20
0.0
 30
0.0
 70
   128
 71
    41
 72
    42
 73
   165
  0
VERTEX
  5
167
  8
0
 10
0.0
 20
0.0
 30
0.0
 70
   128
 71
   165
 72
    42
 73
    43
  0
VERTEX
  5
168
  8
0
 10
0.0
 20
0.0
 30
0.0
 70
   128
 71
   162
 72
    43
 73
    44
  0
VERTEX
  5
169
  8
0
 10
0.0
 20
0.0
 30
0.0
 70
   128
 71
    45
 72
   162
 73
    44
  0
VERTEX
  5
16A
  8
0
 10
0.0
 20
0.0
 30
0.0
 70
   128
 71
    45
 72
    46
 73
   162
  0
VERTEX
  5
16B
  8
0
 10
0.0
 20
0.0
 30
0.0
 70
   128
 71
   162
 72
    46
 73
    47
  0
VERTEX
  5
16C
  8
0
 10
0.0
 20
0.0
 30
0.0
 70
   128
 71
    48
 72
   162
 73
    47
  0
VERTEX
  5
16D
  8
0
 10
0.0
 20
0.0
 30
0.0
 70
   128
 71
    48
 72
    49
 73
   162
  0
VERTEX
  5
16E
  8
0
 10
0.0
 20
0.0
 30
0.0
 70
   128
 71
    69
 72
    70
 73
   153
  0
VERTEX
  5
16F
  8
0
 10
0.0
 20
0.0
 30
0.0
 70
   128
 71
   153
 72
    70
 73
    71
  0
VERTEX
  5
170
  8
0
 10
0.0
 20
0.0
 30
0.0
 70
   128
 71
    72
 72
   153
 73
    71
  0
VERTEX
  5
171
  8
0
 10
0.0
 20
0.0
 30
0.0
 70
   128
 71
    72
 72
   150
 73
   153
  0
VERTEX
  5
172
  8
0
 10
0.0
 20
0.0
 30
0.0
 70
   128
 71
    72
 72
    73
 73
   150
  0
VERTEX
  5
173
  8
0
 10
0.0
 20
0.0
 30
0.0
 70
   128
 71
   150
 72
    73
 73
    74
  0
VERTEX
  5
174
  8
0
 10
0.0
 20
0.0
 30
0.0
 70
   128
 71
    75
 72
   150
 73
    74
  0
VERTEX
  5
175
  8
0
 10
0.0
 20
0.0
 30
0.0
 70
   128
 71
    75
 72
   147
 73
   150
  0
VERTEX
  5
176
  8
0
 10
0.0
 20
0.0
 30
0.0
 70
   128
 71
    75
 72
    76
 73
   147
  0
VERTEX
  5
177
  8
0
 10
0.0
 20
0.0
 30
0.0
 70
   128
 71
   147
 72
    76
 73
    77
  0
VERTEX
  5
178
  8
0
 10
0.0
 20
0.0
 30
0.0
 70
   128
 71
   144
 72
    77
 73
    78
  0
VERTEX
  5
179
  8
0
 10
0.0
 20
0.0
 30
0.0
 70
   128
 71
    79
 72
   144
 73
    78
  0
VERTEX
  5
17A
  8
0
 10
0.0
 20
0.0
 30
0.0
 70
   128
 71
    79
 72
    80
 73
   144
  0
VERTEX
  5
17B
  8
0
 10
0.0
 20
0.0
 30
0.0
 70
   128
 71
   144
 72
    80
 73
    81
  0
VERTEX
  5
17C
  8
0
 10
0.0
 20
0.0
 30
0.0
 70
   128
 71
    82
 72
   144
 73
    81
  0
VERTEX
  5
17D
  8
0
 10
0.0
 20
0.0
 30
0.0
 70
   128
 71
    82
 72
   141
 73
   144
  0
VERTEX
  5
17E
  8
0
 10
0.0
 20
0.0
 30
0.0
 70
   128
 71
    82
 72
    83
 73
   141
  0
VERTEX
  5
17F
  8
0
 10
0.0
 20
0.0
 30
0.0
 70
   128
 71
   141
 72
    83
 73
    84
  0
VERTEX
  5
180
  8
0
 10
0.0
 20
0.0
 30
0.0
 70
   128
 71
    85
 72
   141
 73
    84
  0
VERTEX
  5
181
  8
0
 10
0.0
 20
0.0
 30
0.0
 70
   128
 71
    85
 72
    86
 73
   141
  0
VERTEX
  5
182
  8
0
 10
0.0
 20
0.0
 30
0.0
 70
   128
 71
   141
 72
    86
 73
    87
  0
VERTEX
  5
183
  8
0
 10
0.0
 20
0.0
 30
0.0
 70
   128
 71
    88
 72
   141
 73
    87
  0
VERTEX
  5
184
  8
0
 10
0.0
 20
0.0
 30
0.0
 70
   128
 71
    88
 72
    89
 73
   141
  0
VERTEX
  5
185
  8
0
 10
0.0
 20
0.0
 30
0.0
 70
   128
 71
   141
 72
    89
 73
    90
  0
VERTEX
  5
186
  8
0
 10
0.0
 20
0.0
 30
0.0
 70
   128
 71
    91
 72
   141
 73
    90
  0
VERTEX
  5
187
  8
0
 10
0.0
 20
0.0
 30
0.0
 70
   128
 71
    91
 72
   138
 73
   141
  0
VERTEX
  5
188
  8
0
 10
0.0
 20
0.0
 30
0.0
 70
   128
 71
    91
 72
    92
 73
   138
  0
VERTEX
  5
189
  8
0
 10
0.0
 20
0.0
 30
0.0
 70
   128
 71
   138
 72
    92
 73
    93
  0
VERTEX
  5
18A
  8
0
 10
0.0
 20
0.0
 30
0.0
 70
   128
 71
    94
 72
   138
 73
    93
  0
VERTEX
  5
18B
  8
0
 10
0.0
 20
0.0
 30
0.0
 70
   128
 71
    94
 72
    95
 73
   138
  0
VERTEX
  5
18C
  8
0
 10
0.0
 20
0.0
 30
0.0
 70
   128
 71
   138
 72
    95
 73
    96
  0
VERTEX
  5
18D
  8
0
 10
0.0
 20
0.0
 30
0.0
 70
   128
 71
    97
 72
   138
 73
    96
  0
VERTEX
  5
18E
  8
0
 10
0.0
 20
0.0
 30
0.0
 70
   128
 71
    97
 72
    98
 73
   138
  0
VERTEX
  5
18F
  8
0
 10
0.0
 20
0.0
 30
0.0
 70
   128
 71
   138
 72
    98
 73
    99
  0
VERTEX
  5
190
  8
0
 10
0.0
 20
0.0
 30
0.0
 70
   128
 71
   100
 72
   138
 73
    99
  0
VERTEX
  5
191
  8
0
 10
0.0
 20
0.0
 30
0.0
 70
   128
 71
   100
 72
   101
 73
   138
  0
VERTEX
  5
192
  8
0
 10
0.0
 20
0.0
 30
0.0
 70
   128
 71
   138
 72
   101
 73
   102
  0
VERTEX
  5
193
  8
0
 10
0.0
 20
0.0
 30
0.0
 70
   128
 71
   135
 72
   102
 73
   103
  0
VERTEX
  5
194
  8
0
 10
0.0
 20
0.0
 30
0.0
 70
   128
 71
   104
 72
   135
 73
   103
  0
VERTEX
  5
195
  8
0
 10
0.0
 20
0.0
 30
0.0
 70
   128
 71
   104
 72
   105
 73
   135
  0
VERTEX
  5
196
  8
0
 10
0.0
 20
0.0
 30
0.0
 70
   128
 71
   135
 72
   105
 73
   106
  0
VERTEX
  5
197
  8
0
 10
0.0
 20
0.0
 30
0.0
 70
   128
 71
   107
 72
   135
 73
   106
  0
VERTEX
  5
198
  8
0
 10
0.0
 20
0.0
 30
0.0
 70
   128
 71
   107
 72
   108
 73
   135
  0
VERTEX
  5
199
  8
0
 10
0.0
 20
0.0
 30
0.0
 70
   128
 71
   135
 72
   108
 73
   109
  0
VERTEX
  5
19A
  8
0
 10
0.0
 20
0.0
 30
0.0
 70
   128
 71
   132
 72
   109
 73
   110
  0
VERTEX
  5
19B
  8
0
 10
0.0
 20
0.0
 30
0.0
 70
   128
 71
   111
 72
   132
 73
   110
  0
VERTEX
  5
19C
  8
0
 10
0.0
 20
0.0
 30
0.0
 70
   128
 71
   111
 72
   112
 73
   132
  0
VERTEX
  5
19D
  8
0
 10
0.0
 20
0.0
 30
0.0
 70
   128
 71
   132
 72
   112
 73
   113
  0
VERTEX
  5
19E
  8
0
 10
0.0
 20
0.0
 30
0.0
 70
   128
 71
   114
 72
   132
 73
   113
  0
VERTEX
  5
19F
  8
0
 10
0.0
 20
0.0
 30
0.0
 70
   128
 71
   114
 72
   129
 73
   132
  0
VERTEX
  5
1A0
  8
0
 10
0.0
 20
0.0
 30
0.0
 70
   128
 71
   114
 72
   115
 73
   129
  0
VERTEX
  5
1A1
  8
0
 10
0.0
 20
0.0
 30
0.0
 70
   128
 71
   129
 72
   115
 73
   116
  0
VERTEX
  5
1A2
  8
0
 10
0.0
 20
0.0
 30
0.0
 70
   128
 71
   117
 72
   129
 73
   116
  0
VERTEX
  5
1A3
  8
0
 10
0.0
 20
0.0
 30
0.0
 70
   128
 71
   117
 72
   118
 73
   129
  0
VERTEX
  5
1A4
  8
0
 10
0.0
 20
0.0
 30
0.0
 70
   128
 71
   129
 72
   118
 73
   119
  0
VERTEX
  5
1A5
  8
0
 10
0.0
 20
0.0
 30
0.0
 70
   128
 71
   122
 72
   119
 73
   120
  0
VERTEX
  5
1A6
  8
0
 10
0.0
 20
0.0
 30
0.0
 70
   128
 71
   121
 72
   122
 73
   120
  0
VERTEX
  5
1A7
  8
0
 10
0.0
 20
0.0
 30
0.0
 70
   128
 71
   119
 72
   122
 73
   129
  0
VERTEX
  5
1A8
  8
0
 10
0.0
 20
0.0
 30
0.0
 70
   128
 71
   129
 72
   122
 73
   123
  0
VERTEX
  5
1A9
  8
0
 10
0.0
 20
0.0
 30
0.0
 70
   128
 71
   128
 72
   123
 73
   124
  0
VERTEX
  5
1AA
  8
0
 10
0.0
 20
0.0
 30
0.0
 70
   128
 71
   127
 72
   124
 73
   125
  0
VERTEX
  5
1AB
  8
0
 10
0.0
 20
0.0
 30
0.0
 70
   128
 71
   126
 72
   127
 73
   125
  0
VERTEX
  5
1AC
  8
0
 10
0.0
 20
0.0
 30
0.0
 70
   128
 71
   126
 72
     3
 73
   127
  0
VERTEX
  5
1AD
  8
0
 10
0.0
 20
0.0
 30
0.0
 70
   128
 71
   124
 72
   127
 73
   128
  0
VERTEX
  5
1AE
  8
0
 10
0.0
 20
0.0
 30
0.0
 70
   128
 71
   128
 72
   127
 73
   130
 74
   131
  0
VERTEX
  5
1AF
  8
0
 10
0.0
 20
0.0
 30
0.0
 70
   128
 71
   129
 72
   128
 73
   131
 74
   132
  0
VERTEX
  5
1B0
  8
0
 10
0.0
 20
0.0
 30
0.0
 70
   128
 71
   123
 72
   128
 73
   129
  0
VERTEX
  5
1B1
  8
0
 10
0.0
 20
0.0
 30
0.0
 70
   128
 71
   135
 72
   134
 73
   137
 74
   138
  0
VERTEX
  5
1B2
  8
0
 10
0.0
 20
0.0
 30
0.0
 70
   128
 71
   135
 72
   138
 73
   102
  0
VERTEX
  5
1B3
  8
0
 10
0.0
 20
0.0
 30
0.0
 70
   128
 71
   132
 72
   135
 73
   109
  0
VERTEX
  5
1B4
  8
0
 10
0.0
 20
0.0
 30
0.0
 70
   128
 71
   138
 72
   137
 73
   140
 74
   141
  0
VERTEX
  5
1B5
  8
0
 10
0.0
 20
0.0
 30
0.0
 70
   128
 71
   141
 72
   140
 73
   143
 74
   144
  0
VERTEX
  5
1B6
  8
0
 10
0.0
 20
0.0
 30
0.0
 70
   128
 71
   140
 72
   139
 73
   142
 74
   143
  0
VERTEX
  5
1B7
  8
0
 10
0.0
 20
0.0
 30
0.0
 70
   128
 71
   139
 72
    17
 73
   142
  0
VERTEX
  5
1B8
  8
0
 10
0.0
 20
0.0
 30
0.0
 70
   128
 71
   143
 72
   142
 73
   145
 74
   146
  0
VERTEX
  5
1B9
  8
0
 10
0.0
 20
0.0
 30
0.0
 70
   128
 71
   144
 72
   147
 73
    77
  0
VERTEX
  5
1BA
  8
0
 10
0.0
 20
0.0
 30
0.0
 70
   128
 71
   144
 72
   143
 73
   146
 74
   147
  0
VERTEX
  5
1BB
  8
0
 10
0.0
 20
0.0
 30
0.0
 70
   128
 71
   156
 72
   155
 73
   158
 74
   159
  0
VERTEX
  5
1BC
  8
0
 10
0.0
 20
0.0
 30
0.0
 70
   128
 71
   157
 72
   154
 73
    26
  0
VERTEX
  5
1BD
  8
0
 10
0.0
 20
0.0
 30
0.0
 70
   128
 71
   165
 72
   164
 73
    36
  0
VERTEX
  5
1BE
  8
0
 10
0.0
 20
0.0
 30
0.0
 70
   128
 71
   162
 72
   165
 73
    43
  0
VERTEX
  5
1BF
  8
0
 10
0.0
 20
0.0
 30
0.0
 70
   128
 71
   163
 72
   160
 73
    30
  0
SEQEND
  5
1C0
  8
LAYER1
 62
     7
  0
POLYLINE
  5
1C1
  8
LAYER1
 62
     7
 66
     1
 10
0.0
 20
0.0
 30
0.0
 70
    64
 71
    61
 72
    59
  0
VERTEX
  5
1C2
  8
0
 10
115.5
 20
-0.0000000000000011
 30
-0.0000000000000127
 70
   192
  0
VERTEX
  5
1C3
  8
0
 10
-115.5
 20
-0.0000000000000011
 30
-0.0000000000000127
 70
   192
  0
VERTEX
  5
1C4
  8
0
 10
-114.9948196411133
 20
-0.0000000000000032
 30
28.77238082885742
 70
   192
  0
VERTEX
  5
1C5
  8
0
 10
-114.4938507080078
 20
-0.0000000000000032
 30
55.2982292175293
 70
   192
  0
VERTEX
  5
1C6
  8
0
 10
-113.9668197631836
 20
-0.0000000000000033
 30
79.67893981933594
 70
   192
  0
VERTEX
  5
1C7
  8
0
 10
-113.3992691040039
 20
-0.0000000000000033
 30
102.0445556640625
 70
   192
  0
VERTEX
  5
1C8
  8
0
 10
-112.7713012695312
 20
-0.0000000000000033
 30
122.5431900024414
 70
   192
  0
VERTEX
  5
1C9
  8
0
 10
-112.0217208862305
 20
-0.0000000000000033
 30
141.2671813964844
 70
   192
  0
VERTEX
  5
1CA
  8
0
 10
-111.1124420166016
 20
-0.0000000000000034
 30
158.3242950439453
 70
   192
  0
VERTEX
  5
1CB
  8
0
 10
-110.0337905883789
 20
-0.0000000000000034
 30
173.8799438476562
 70
   192
  0
VERTEX
  5
1CC
  8
0
 10
-108.7672958374023
 20
-0.0000000000000034
 30
188.0505828857422
 70
   192
  0
VERTEX
  5
1CD
  8
0
 10
-107.307243347168
 20
-0.0000000000000034
 30
200.8048400878906
 70
   192
  0
VERTEX
  5
1CE
  8
0
 10
-105.6900100708008
 20
-0.0000000000000034
 30
212.1167755126953
 70
   192
  0
VERTEX
  5
1CF
  8
0
 10
-103.9405670166016
 20
-0.0000000000000035
 30
222.2386322021484
 70
   192
  0
VERTEX
  5
1D0
  8
0
 10
-101.9961700439453
 20
-0.0000000000000035
 30
231.6101531982422
 70
   192
  0
VERTEX
  5
1D1
  8
0
 10
-99.74454498291016
 20
-0.0000000000000035
 30
240.6739959716797
 70
   192
  0
VERTEX
  5
1D2
  8
0
 10
-97.03067779541016
 20
-0.0000000000000035
 30
249.7480773925781
 70
   192
  0
VERTEX
  5
1D3
  8
0
 10
-93.74728393554688
 20
-0.0000000000000035
 30
258.8270874023438
 70
   192
  0
VERTEX
  5
1D4
  8
0
 10
-89.89859771728516
 20
-0.0000000000000035
 30
267.6426086425781
 70
   192
  0
VERTEX
  5
1D5
  8
0
 10
-85.69586944580078
 20
-0.0000000000000035
 30
275.5916137695312
 70
   192
  0
VERTEX
  5
1D6
  8
0
 10
-81.27732849121094
 20
-0.0000000000000035
 30
282.467529296875
 70
   192
  0
VERTEX
  5
1D7
  8
0
 10
-76.61422729492188
 20
-0.0000000000000035
 30
288.3963012695312
 70
   192
  0
VERTEX
  5
1D8
  8
0
 10
-71.58655548095703
 20
-0.0000000000000035
 30
293.5483093261719
 70
   192
  0
VERTEX
  5
1D9
  8
0
 10
-66.06583404541016
 20
-0.0000000000000035
 30
298.0207214355469
 70
   192
  0
VERTEX
  5
1DA
  8
0
 10
-59.89945602416992
 20
-0.0000000000000036
 30
301.9031677246094
 70
   192
  0
VERTEX
  5
1DB
  8
0
 10
-53.02531051635742
 20
-0.0000000000000036
 30
305.2592468261719
 70
   192
  0
VERTEX
  5
1DC
  8
0
 10
-45.42493057250977
 20
-0.0000000000000036
 30
308.0870056152344
 70
   192
  0
VERTEX
  5
1DD
  8
0
 10
-37.09515380859375
 20
-0.0000000000000036
 30
310.3650207519531
 70
   192
  0
VERTEX
  5
1DE
  8
0
 10
-28.13862800598145
 20
-0.0000000000000036
 30
312.0731506347656
 70
   192
  0
VERTEX
  5
1DF
  8
0
 10
-18.76135444641113
 20
-0.0000000000000036
 30
313.2118835449219
 70
   192
  0
VERTEX
  5
1E0
  8
0
 10
-9.282927513122559
 20
-0.0000000000000036
 30
313.8226623535156
 70
   192
  0
VERTEX
  5
1E1
  8
0
 10
-0.0000000000000031
 20
0.0
 30
314.0
 70
   192
  0
VERTEX
  5
1E2
  8
0
 10
9.282927513122559
 20
-0.0000000000000036
 30
313.8226623535156
 70
   192
  0
VERTEX
  5
1E3
  8
0
 10
18.76135444641113
 20
-0.0000000000000036
 30
313.2118835449219
 70
   192
  0
VERTEX
  5
1E4
  8
0
 10
28.13862800598145
 20
-0.0000000000000036
 30
312.0731506347656
 70
   192
  0
VERTEX
  5
1E5
  8
0
 10
37.09515380859375
 20
-0.0000000000000036
 30
310.3650207519531
 70
   192
  0
VERTEX
  5
1E6
  8
0
 10
45.42493057250977
 20
-0.0000000000000036
 30
308.0870056152344
 70
   192
  0
VERTEX
  5
1E7
  8
0
 10
53.02531051635742
 20
-0.0000000000000036
 30
305.2592468261719
 70
   192
  0
VERTEX
  5
1E8
  8
0
 10
59.89945602416992
 20
-0.0000000000000036
 30
301.9031677246094
 70
   192
  0
VERTEX
  5
1E9
  8
0
 10
66.06583404541016
 20
-0.0000000000000035
 30
298.0207214355469
 70
   192
  0
VERTEX
  5
1EA
  8
0
 10
71.58655548095703
 20
-0.0000000000000035
 30
293.5483093261719
 70
   192
  0
VERTEX
  5
1EB
  8
0
 10
76.61422729492188
 20
-0.0000000000000035
 30
288.3963012695312
 70
   192
  0
VERTEX
  5
1EC
  8
0
 10
81.27732849121094
 20
-0.0000000000000035
 30
282.467529296875
 70
   192
  0
VERTEX
  5
1ED
  8
0
 10
85.69586944580078
 20
-0.0000000000000035
 30
275.5916137695312
 70
   192
  0
VERTEX
  5
1EE
  8
0
 10
89.89859771728516
 20
-0.0000000000000035
 30
267.6426086425781
 70
   192
  0
VERTEX
  5
1EF
  8
0
 10
93.74728393554688
 20
-0.0000000000000035
 30
258.8270874023438
 70
   192
  0
VERTEX
  5
1F0
  8
0
 10
97.03067779541016
 20
-0.0000000000000035
 30
249.7480773925781
 70
   192
  0
VERTEX
  5
1F1
  8
0
 10
99.74454498291016
 20
-0.0000000000000035
 30
240.6739959716797
 70
   192
  0
VERTEX
  5
1F2
  8
0
 10
101.9961700439453
 20
-0.0000000000000035
 30
231.6101531982422
 70
   192
  0
VERTEX
  5
1F3
  8
0
 10
103.9405670166016
 20
-0.0000000000000035
 30
222.2386322021484
 70
   192
  0
VERTEX
  5
1F4
  8
0
 10
105.6900100708008
 20
-0.0000000000000034
 30
212.1167755126953
 70
   192
  0
VERTEX
  5
1F5
  8
0
 10
107.307243347168
 20
-0.0000000000000034
 30
200.8048400878906
 70
   192
  0
VERTEX
  5
1F6
  8
0
 10
108.7672958374023
 20
-0.0000000000000034
 30
188.0505828857422
 70
   192
  0
VERTEX
  5
1F7
  8
0
 10
110.0337905883789
 20
-0.0000000000000034
 30
173.8799438476562
 70
   192
  0
VERTEX
  5
1F8
  8
0
 10
111.1124420166016
 20
-0.0000000000000034
 30
158.3242950439453
 70
   192
  0
VERTEX
  5
1F9
  8
0
 10
112.0217208862305
 20
-0.0000000000000033
 30
141.2671813964844
 70
   192
  0
VERTEX
  5
1FA
  8
0
 10
112.7713012695312
 20
-0.0000000000000033
 30
122.5431900024414
 70
   192
  0
VERTEX
  5
1FB
  8
0
 10
113.3992691040039
 20
-0.0000000000000033
 30
102.0445556640625
 70
   192
  0
VERTEX
  5
1FC
  8
0
 10
113.9668197631836
 20
-0.0000000000000033
 30
79.67893981933594
 70
   192
  0
VERTEX
  5
1FD
  8
0
 10
114.4938507080078
 20
-0.0000000000000032
 30
55.2982292175293
 70
   192
  0
VERTEX
  5
1FE
  8
0
 10
114.9948196411133
 20
-0.0000000000000032
 30
28.77238082885742
 70
   192
  0
VERTEX
  5
1FF
  8
0
 10
0.0
 20
0.0
 30
0.0
 70
   128
 71
     1
 72
     2
 73
    61
  0
VERTEX
  5
200
  8
0
 10
0.0
 20
0.0
 30
0.0
 70
   128
 71
    61
 72
     2
 73
     3
  0
VERTEX
  5
201
  8
0
 10
0.0
 20
0.0
 30
0.0
 70
   128
 71
    60
 72
     3
 73
     4
  0
VERTEX
  5
202
  8
0
 10
0.0
 20
0.0
 30
0.0
 70
   128
 71
    59
 72
     4
 73
     5
  0
VERTEX
  5
203
  8
0
 10
0.0
 20
0.0
 30
0.0
 70
   128
 71
    58
 72
     5
 73
     6
  0
VERTEX
  5
204
  8
0
 10
0.0
 20
0.0
 30
0.0
 70
   128
 71
    57
 72
     6
 73
     7
  0
VERTEX
  5
205
  8
0
 10
0.0
 20
0.0
 30
0.0
 70
   128
 71
    56
 72
     7
 73
     8
  0
VERTEX
  5
206
  8
0
 10
0.0
 20
0.0
 30
0.0
 70
   128
 71
    55
 72
     8
 73
     9
  0
VERTEX
  5
207
  8
0
 10
0.0
 20
0.0
 30
0.0
 70
   128
 71
    54
 72
     9
 73
    10
  0
VERTEX
  5
208
  8
0
 10
0.0
 20
0.0
 30
0.0
 70
   128
 71
    53
 72
    10
 73
    11
  0
VERTEX
  5
209
  8
0
 10
0.0
 20
0.0
 30
0.0
 70
   128
 71
    52
 72
    11
 73
    12
  0
VERTEX
  5
20A
  8
0
 10
0.0
 20
0.0
 30
0.0
 70
   128
 71
    51
 72
    12
 73
    13
  0
VERTEX
  5
20B
  8
0
 10
0.0
 20
0.0
 30
0.0
 70
   128
 71
    50
 72
    13
 73
    14
  0
VERTEX
  5
20C
  8
0
 10
0.0
 20
0.0
 30
0.0
 70
   128
 71
    49
 72
    14
 73
    15
  0
VERTEX
  5
20D
  8
0
 10
0.0
 20
0.0
 30
0.0
 70
   128
 71
    48
 72
    15
 73
    16
  0
VERTEX
  5
20E
  8
0
 10
0.0
 20
0.0
 30
0.0
 70
   128
 71
    47
 72
    16
 73
    17
  0
VERTEX
  5
20F
  8
0
 10
0.0
 20
0.0
 30
0.0
 70
   128
 71
    46
 72
    17
 73
    18
  0
VERTEX
  5
210
  8
0
 10
0.0
 20
0.0
 30
0.0
 70
   128
 71
    45
 72
    18
 73
    19
  0
VERTEX
  5
211
  8
0
 10
0.0
 20
0.0
 30
0.0
 70
   128
 71
    44
 72
    19
 73
    20
  0
VERTEX
  5
212
  8
0
 10
0.0
 20
0.0
 30
0.0
 70
   128
 71
    43
 72
    20
 73
    21
  0
VERTEX
  5
213
  8
0
 10
0.0
 20
0.0
 30
0.0
 70
   128
 71
    42
 72
    21
 73
    22
  0
VERTEX
  5
214
  8
0
 10
0.0
 20
0.0
 30
0.0
 70
   128
 71
    41
 72
    22
 73
    23
  0
VERTEX
  5
215
  8
0
 10
0.0
 20
0.0
 30
0.0
 70
   128
 71
    40
 72
    23
 73
    24
  0
VERTEX
  5
216
  8
0
 10
0.0
 20
0.0
 30
0.0
 70
   128
 71
    39
 72
    24
 73
    25
  0
VERTEX
  5
217
  8
0
 10
0.0
 20
0.0
 30
0.0
 70
   128
 71
    38
 72
    25
 73
    26
  0
VERTEX
  5
218
  8
0
 10
0.0
 20
0.0
 30
0.0
 70
   128
 71
    37
 72
    26
 73
    27
  0
VERTEX
  5
219
  8
0
 10
0.0
 20
0.0
 30
0.0
 70
   128
 71
    36
 72
    27
 73
    28
  0
VERTEX
  5
21A
  8
0
 10
0.0
 20
0.0
 30
0.0
 70
   128
 71
    35
 72
    28
 73
    29
  0
VERTEX
  5
21B
  8
0
 10
0.0
 20
0.0
 30
0.0
 70
   128
 71
    34
 72
    29
 73
    33
  0
VERTEX
  5
21C
  8
0
 10
0.0
 20
0.0
 30
0.0
 70
   128
 71
    34
 72
    35
 73
    29
  0
VERTEX
  5
21D
  8
0
 10
0.0
 20
0.0
 30
0.0
 70
   128
 71
    30
 72
    31
 73
    29
  0
VERTEX
  5
21E
  8
0
 10
0.0
 20
0.0
 30
0.0
 70
   128
 71
    29
 72
    31
 73
    32
  0
VERTEX
  5
21F
  8
0
 10
0.0
 20
0.0
 30
0.0
 70
   128
 71
    33
 72
    29
 73
    32
  0
VERTEX
  5
220
  8
0
 10
0.0
 20
0.0
 30
0.0
 70
   128
 71
    35
 72
    36
 73
    28
  0
VERTEX
  5
221
  8
0
 10
0.0
 20
0.0
 30
0.0
 70
   128
 71
    36
 72
    37
 73
    27
  0
VERTEX
  5
222
  8
0
 10
0.0
 20
0.0
 30
0.0
 70
   128
 71
    37
 72
    38
 73
    26
  0
VERTEX
  5
223
  8
0
 10
0.0
 20
0.0
 30
0.0
 70
   128
 71
    38
 72
    39
 73
    25
  0
VERTEX
  5
224
  8
0
 10
0.0
 20
0.0
 30
0.0
 70
   128
 71
    39
 72
    40
 73
    24
  0
VERTEX
  5
225
  8
0
 10
0.0
 20
0.0
 30
0.0
 70
   128
 71
    40
 72
    41
 73
    23
  0
VERTEX
  5
226
  8
0
 10
0.0
 20
0.0
 30
0.0
 70
   128
 71
    41
 72
    42
 73
    22
  0
VERTEX
  5
227
  8
0
 10
0.0
 20
0.0
 30
0.0
 70
   128
 71
    42
 72
    43
 73
    21
  0
VERTEX
  5
228
  8
0
 10
0.0
 20
0.0
 30
0.0
 70
   128
 71
    43
 72
    44
 73
    20
  0
VERTEX
  5
229
  8
0
 10
0.0
 20
0.0
 30
0.0
 70
   128
 71
    44
 72
    45
 73
    19
  0
VERTEX
  5
22A
  8
0
 10
0.0
 20
0.0
 30
0.0
 70
   128
 71
    45
 72
    46
 73
    18
  0
VERTEX
  5
22B
  8
0
 10
0.0
 20
0.0
 30
0.0
 70
   128
 71
    46
 72
    47
 73
    17
  0
VERTEX
  5
22C
  8
0
 10
0.0
 20
0.0
 30
0.0
 70
   128
 71
    47
 72
    48
 73
    16
  0
VERTEX
  5
22D
  8
0
 10
0.0
 20
0.0
 30
0.0
 70
   128
 71
    48
 72
    49
 73
    15
  0
VERTEX
  5
22E
  8
0
 10
0.0
 20
0.0
 30
0.0
 70
   128
 71
    49
 72
    50
 73
    14
  0
VERTEX
  5
22F
  8
0
 10
0.0
 20
0.0
 30
0.0
 70
   128
 71
    50
 72
    51
 73
    13
  0
VERTEX
  5
230
  8
0
 10
0.0
 20
0.0
 30
0.0
 70
   128
 71
    51
 72
    52
 73
    12
  0
VERTEX
  5
231
  8
0
 10
0.0
 20
0.0
 30
0.0
 70
   128
 71
    52
 72
    53
 73
    11
  0
VERTEX
  5
232
  8
0
 10
0.0
 20
0.0
 30
0.0
 70
   128
 71
    53
 72
    54
 73
    10
  0
VERTEX
  5
233
  8
0
 10
0.0
 20
0.0
 30
0.0
 70
   128
 71
    54
 72
    55
 73
     9
  0
VERTEX
  5
234
  8
0
 10
0.0
 20
0.0
 30
0.0
 70
   128
 71
    55
 72
    56
 73
     8
  0
VERTEX
  5
235
  8
0
 10
0.0
 20
0.0
 30
0.0
 70
   128
 71
    56
 72
    57
 73
     7
  0
VERTEX
  5
236
  8
0
 10
0.0
 20
0.0
 30
0.0
 70
   128
 71
    57
 72
    58
 73
     6
  0
VERTEX
  5
237
  8
0
 10
0.0
 20
0.0
 30
0.0
 70
   128
 71
    58
 72
    59
 73
     5
  0
VERTEX
  5
238
  8
0
 10
0.0
 20
0.0
 30
0.0
 70
   128
 71
    59
 72
    60
 73
     4
  0
VERTEX
  5
239
  8
0
 10
0.0
 20
0.0
 30
0.0
 70
   128
 71
    60
 72
    61
 73
     3
  0
SEQEND
  5
23A
  8
LAYER1
 62
     7
  0
POLYLINE
  5
23B
  8
LAYER1
 62
     7
 66
     1
 10
0.0
 20
0.0
 30
0.0
 70
    64
 71
    45
 72
    43
  0
VERTEX
  5
23C
  8
0
 10
115.5
 20
-0.0000000000000011
 30
-0.0000000000000127
 70
   192
  0
VERTEX
  5
23D
  8
0
 10
114.2057495117188
 20
-53.97034454345703
 30
0.0000000000000062
 70
   192
  0
VERTEX
  5
23E
  8
0
 10
111.1160278320312
 20
-107.875358581543
 30
0.0000000000000251
 70
   192
  0
VERTEX
  5
23F
  8
0
 10
106.2272109985352
 20
-161.6241760253906
 30
0.0000000000000439
 70
   192
  0
VERTEX
  5
240
  8
0
 10
99.54136657714844
 20
-215.1717224121094
 30
0.0000000000000626
 70
   192
  0
VERTEX
  5
241
  8
0
 10
91.06655883789062
 20
-268.4734802246094
 30
0.0000000000000813
 70
   192
  0
VERTEX
  5
242
  8
0
 10
80.82615661621094
 20
-321.4414367675781
 30
-0.0000000755752936
 70
   192
  0
VERTEX
  5
243
  8
0
 10
80.2870101928711
 20
-323.3595886230469
 30
0.0000000000001005
 70
   192
  0
VERTEX
  5
244
  8
0
 10
79.49980163574219
 20
-325.1865844726562
 30
0.0000000000001011
 70
   192
  0
VERTEX
  5
245
  8
0
 10
78.4793701171875
 20
-326.8910217285156
 30
0.0000000000001017
 70
   192
  0
VERTEX
  5
246
  8
0
 10
77.23745727539062
 20
-328.4513854980469
 30
0.0000000000001023
 70
   192
  0
VERTEX
  5
247
  8
0
 10
75.80089569091797
 20
-329.8320922851562
 30
0.0000000000001028
 70
   192
  0
VERTEX
  5
248
  8
0
 10
74.20057678222656
 20
-331.0060424804688
 30
0.0000000000001032
 70
   192
  0
VERTEX
  5
249
  8
0
 10
72.44796752929688
 20
-331.9637145996094
 30
0.0000000000001035
 70
   192
  0
VERTEX
  5
24A
  8
0
 10
70.59349060058594
 20
-332.6770629882812
 30
-0.0000000008345323
 70
   192
  0
VERTEX
  5
24B
  8
0
 10
61.99911117553711
 20
-335.1618041992188
 30
0.0000000000001046
 70
   192
  0
VERTEX
  5
24C
  8
0
 10
53.30515289306641
 20
-337.3071594238281
 30
0.0000000000001054
 70
   192
  0
VERTEX
  5
24D
  8
0
 10
44.53233337402344
 20
-339.1018676757812
 30
0.000000000000106
 70
   192
  0
VERTEX
  5
24E
  8
0
 10
35.70322418212891
 20
-340.5423583984375
 30
0.0000000000001065
 70
   192
  0
VERTEX
  5
24F
  8
0
 10
26.83718299865723
 20
-341.6380615234375
 30
0.0000000000001069
 70
   192
  0
VERTEX
  5
250
  8
0
 10
17.93460655212402
 20
-342.4035034179688
 30
0.0000000000001072
 70
   192
  0
VERTEX
  5
251
  8
0
 10
8.991300582885742
 20
-342.8529663085938
 30
0.0000000000001073
 70
   192
  0
VERTEX
  5
252
  8
0
 10
0.0
 20
-343.0
 30
-0.0000000000000013
 70
   192
  0
VERTEX
  5
253
  8
0
 10
-8.991300582885742
 20
-342.8529663085938
 30
0.0000000000001073
 70
   192
  0
VERTEX
  5
254
  8
0
 10
-17.93460655212402
 20
-342.4035034179688
 30
0.0000000000001072
 70
   192
  0
VERTEX
  5
255
  8
0
 10
-26.83718299865723
 20
-341.6380615234375
 30
0.0000000000001069
 70
   192
  0
VERTEX
  5
256
  8
0
 10
-35.70322418212891
 20
-340.5423583984375
 30
0.0000000000001065
 70
   192
  0
VERTEX
  5
257
  8
0
 10
-44.53233337402344
 20
-339.1018676757812
 30
0.000000000000106
 70
   192
  0
VERTEX
  5
258
  8
0
 10
-53.30515289306641
 20
-337.3071594238281
 30
0.0000000000001054
 70
   192
  0
VERTEX
  5
259
  8
0
 10
-61.99911117553711
 20
-335.1618041992188
 30
0.0000000000001046
 70
   192
  0
VERTEX
  5
25A
  8
0
 10
-70.59349060058594
 20
-332.6770629882812
 30
-0.0000000008345323
 70
   192
  0
VERTEX
  5
25B
  8
0
 10
-72.44796752929688
 20
-331.9637145996094
 30
0.0000000000001035
 70
   192
  0
VERTEX
  5
25C
  8
0
 10
-74.20057678222656
 20
-331.0060424804688
 30
0.0000000000001032
 70
   192
  0
VERTEX
  5
25D
  8
0
 10
-75.80089569091797
 20
-329.8320922851562
 30
0.0000000000001028
 70
   192
  0
VERTEX
  5
25E
  8
0
 10
-77.23745727539062
 20
-328.4513854980469
 30
0.0000000000001023
 70
   192
  0
VERTEX
  5
25F
  8
0
 10
-78.4793701171875
 20
-326.8910217285156
 30
0.0000000000001017
 70
   192
  0
VERTEX
  5
260
  8
0
 10
-79.49980163574219
 20
-325.1865844726562
 30
0.0000000000001011
 70
   192
  0
VERTEX
  5
261
  8
0
 10
-80.2870101928711
 20
-323.3595886230469
 30
0.0000000000001005
 70
   192
  0
VERTEX
  5
262
  8
0
 10
-80.82615661621094
 20
-321.4414367675781
 30
-0.0000000755752936
 70
   192
  0
VERTEX
  5
263
  8
0
 10
-91.06655883789062
 20
-268.4734802246094
 30
0.0000000000000813
 70
   192
  0
VERTEX
  5
264
  8
0
 10
-99.54136657714844
 20
-215.1717224121094
 30
0.0000000000000626
 70
   192
  0
VERTEX
  5
265
  8
0
 10
-106.2272109985352
 20
-161.6241760253906
 30
0.0000000000000439
 70
   192
  0
VERTEX
  5
266
  8
0
 10
-111.1160278320312
 20
-107.875358581543
 30
0.0000000000000251
 70
   192
  0
VERTEX
  5
267
  8
0
 10
-114.2057495117188
 20
-53.97034454345703
 30
0.0000000000000062
 70
   192
  0
VERTEX
  5
268
  8
0
 10
-115.5
 20
-0.0000000000000011
 30
-0.0000000000000127
 70
   192
  0
VERTEX
  5
269
  8
0
 10
0.0
 20
0.0
 30
0.0
 70
   128
 71
    45
 72
     1
 73
    44
  0
VERTEX
  5
26A
  8
0
 10
0.0
 20
0.0
 30
0.0
 70
   128
 71
    44
 72
     1
 73
     2
  0
VERTEX
  5
26B
  8
0
 10
0.0
 20
0.0
 30
0.0
 70
   128
 71
    43
 72
     2
 73
     3
  0
VERTEX
  5
26C
  8
0
 10
0.0
 20
0.0
 30
0.0
 70
   128
 71
    42
 72
     3
 73
     4
  0
VERTEX
  5
26D
  8
0
 10
0.0
 20
0.0
 30
0.0
 70
   128
 71
    41
 72
     4
 73
     5
  0
VERTEX
  5
26E
  8
0
 10
0.0
 20
0.0
 30
0.0
 70
   128
 71
    40
 72
     5
 73
     6
  0
VERTEX
  5
26F
  8
0
 10
0.0
 20
0.0
 30
0.0
 70
   128
 71
    39
 72
     6
 73
     7
  0
VERTEX
  5
270
  8
0
 10
0.0
 20
0.0
 30
0.0
 70
   128
 71
    38
 72
     7
 73
     8
  0
VERTEX
  5
271
  8
0
 10
0.0
 20
0.0
 30
0.0
 70
   128
 71
    37
 72
     8
 73
     9
  0
VERTEX
  5
272
  8
0
 10
0.0
 20
0.0
 30
0.0
 70
   128
 71
    36
 72
     9
 73
    10
  0
VERTEX
  5
273
  8
0
 10
0.0
 20
0.0
 30
0.0
 70
   128
 71
    35
 72
    10
 73
    11
  0
VERTEX
  5
274
  8
0
 10
0.0
 20
0.0
 30
0.0
 70
   128
 71
    34
 72
    11
 73
    12
  0
VERTEX
  5
275
  8
0
 10
0.0
 20
0.0
 30
0.0
 70
   128
 71
    33
 72
    12
 73
    13
  0
VERTEX
  5
276
  8
0
 10
0.0
 20
0.0
 30
0.0
 70
   128
 71
    32
 72
    13
 73
    14
  0
VERTEX
  5
277
  8
0
 10
0.0
 20
0.0
 30
0.0
 70
   128
 71
    31
 72
    14
 73
    15
  0
VERTEX
  5
278
  8
0
 10
0.0
 20
0.0
 30
0.0
 70
   128
 71
    30
 72
    15
 73
    16
  0
VERTEX
  5
279
  8
0
 10
0.0
 20
0.0
 30
0.0
 70
   128
 71
    29
 72
    16
 73
    17
  0
VERTEX
  5
27A
  8
0
 10
0.0
 20
0.0
 30
0.0
 70
   128
 71
    28
 72
    17
 73
    18
  0
VERTEX
  5
27B
  8
0
 10
0.0
 20
0.0
 30
0.0
 70
   128
 71
    27
 72
    18
 73
    19
  0
VERTEX
  5
27C
  8
0
 10
0.0
 20
0.0
 30
0.0
 70
   128
 71
    26
 72
    19
 73
    20
  0
VERTEX
  5
27D
  8
0
 10
0.0
 20
0.0
 30
0.0
 70
   128
 71
    25
 72
    20
 73
    21
  0
VERTEX
  5
27E
  8
0
 10
0.0
 20
0.0
 30
0.0
 70
   128
 71
    24
 72
    21
 73
    22
  0
VERTEX
  5
27F
  8
0
 10
0.0
 20
0.0
 30
0.0
 70
   128
 71
    23
 72
    24
 73
    22
  0
VERTEX
  5
280
  8
0
 10
0.0
 20
0.0
 30
0.0
 70
   128
 71
    24
 72
    25
 73
    21
  0
VERTEX
  5
281
  8
0
 10
0.0
 20
0.0
 30
0.0
 70
   128
 71
    25
 72
    26
 73
    20
  0
VERTEX
  5
282
  8
0
 10
0.0
 20
0.0
 30
0.0
 70
   128
 71
    26
 72
    27
 73
    19
  0
VERTEX
  5
283
  8
0
 10
0.0
 20
0.0
 30
0.0
 70
   128
 71
    27
 72
    28
 73
    18
  0
VERTEX
  5
284
  8
0
 10
0.0
 20
0.0
 30
0.0
 70
   128
 71
    28
 72
    29
 73
    17
  0
VERTEX
  5
285
  8
0
 10
0.0
 20
0.0
 30
0.0
 70
   128
 71
    29
 72
    30
 73
    16
  0
VERTEX
  5
286
  8
0
 10
0.0
 20
0.0
 30
0.0
 70
   128
 71
    30
 72
    31
 73
    15
  0
VERTEX
  5
287
  8
0
 10
0.0
 20
0.0
 30
0.0
 70
   128
 71
    31
 72
    32
 73
    14
  0
VERTEX
  5
288
  8
0
 10
0.0
 20
0.0
 30
0.0
 70
   128
 71
    32
 72
    33
 73
    13
  0
VERTEX
  5
289
  8
0
 10
0.0
 20
0.0
 30
0.0
 70
   128
 71
    33
 72
    34
 73
    12
  0
VERTEX
  5
28A
  8
0
 10
0.0
 20
0.0
 30
0.0
 70
   128
 71
    34
 72
    35
 73
    11
  0
VERTEX
  5
28B
  8
0
 10
0.0
 20
0.0
 30
0.0
 70
   128
 71
    35
 72
    36
 73
    10
  0
VERTEX
  5
28C
  8
0
 10
0.0
 20
0.0
 30
0.0
 70
   128
 71
    36
 72
    37
 73
     9
  0
VERTEX
  5
28D
  8
0
 10
0.0
 20
0.0
 30
0.0
 70
   128
 71
    37
 72
    38
 73
     8
  0
VERTEX
  5
28E
  8
0
 10
0.0
 20
0.0
 30
0.0
 70
   128
 71
    38
 72
    39
 73
     7
  0
VERTEX
  5
28F
  8
0
 10
0.0
 20
0.0
 30
0.0
 70
   128
 71
    39
 72
    40
 73
     6
  0
VERTEX
  5
290
  8
0
 10
0.0
 20
0.0
 30
0.0
 70
   128
 71
    40
 72
    41
 73
     5
  0
VERTEX
  5
291
  8
0
 10
0.0
 20
0.0
 30
0.0
 70
   128
 71
    41
 72
    42
 73
     4
  0
VERTEX
  5
292
  8
0
 10
0.0
 20
0.0
 30
0.0
 70
   128
 71
    42
 72
    43
 73
     3
  0
VERTEX
  5
293
  8
0
 10
0.0
 20
0.0
 30
0.0
 70
   128
 71
    43
 72
    44
 73
     2
  0
SEQEND
  5
294
  8
LAYER1
 62
     7
  0
POLYLINE
  5
295
  8
LAYER1
 62
     7
 66
     1
 10
0.0
 20
0.0
 30
0.0
 70
    64
 71
   156
 72
   166
  0
VERTEX
  5
296
  8
0
 10
-0.0001185354194604
 20
-312.0359497070312
 30
271.6079406738281
 70
   192
  0
VERTEX
  5
297
  8
0
 10
5.085226058959961
 20
-312.0024719238281
 30
271.5577392578125
 70
   192
  0
VERTEX
  5
298
  8
0
 10
9.713741302490234
 20
-311.922607421875
 30
271.4043273925781
 70
   192
  0
VERTEX
  5
299
  8
0
 10
13.94484424591064
 20
-311.81494140625
 30
271.1492309570312
 70
   192
  0
VERTEX
  5
29A
  8
0
 10
17.79520988464355
 20
-311.69482421875
 30
270.798583984375
 70
   192
  0
VERTEX
  5
29B
  8
0
 10
21.29440307617188
 20
-311.5726013183594
 30
270.3616333007812
 70
   192
  0
VERTEX
  5
29C
  8
0
 10
24.48415756225586
 20
-311.4548645019531
 30
269.8469543457031
 70
   192
  0
VERTEX
  5
29D
  8
0
 10
27.40483856201172
 20
-311.3457641601562
 30
269.2608032226562
 70
   192
  0
VERTEX
  5
29E
  8
0
 10
30.08610916137695
 20
-311.2476806640625
 30
268.6095275878906
 70
   192
  0
VERTEX
  5
29F
  8
0
 10
32.52759170532227
 20
-311.1619567871094
 30
267.9078063964844
 70
   192
  0
VERTEX
  5
2A0
  8
0
 10
34.72562408447266
 20
-311.0889587402344
 30
267.1756591796875
 70
   192
  0
VERTEX
  5
2A1
  8
0
 10
36.71200180053711
 20
-311.02734375
 30
266.4214172363281
 70
   192
  0
VERTEX
  5
2A2
  8
0
 10
38.54084777832031
 20
-310.9748229980469
 30
265.6393737792969
 70
   192
  0
VERTEX
  5
2A3
  8
0
 10
40.24618911743164
 20
-310.9295959472656
 30
264.8253784179688
 70
   192
  0
VERTEX
  5
2A4
  8
0
 10
41.83058166503906
 20
-310.8909301757812
 30
263.9874572753906
 70
   192
  0
VERTEX
  5
2A5
  8
0
 10
43.27429580688477
 20
-310.8591918945312
 30
263.1480102539062
 70
   192
  0
VERTEX
  5
2A6
  8
0
 10
44.55004119873047
 20
-310.8346252441406
 30
262.3399963378906
 70
   192
  0
VERTEX
  5
2A7
  8
0
 10
45.64954376220703
 20
-310.8167114257812
 30
261.5894775390625
 70
   192
  0
VERTEX
  5
2A8
  8
0
 10
46.60679244995117
 20
-310.8038330078125
 30
260.8921508789062
 70
   192
  0
VERTEX
  5
2A9
  8
0
 10
47.47746658325195
 20
-310.7947082519531
 30
260.2195129394531
 70
   192
  0
VERTEX
  5
2AA
  8
0
 10
48.30509185791016
 20
-310.7887878417969
 30
259.5436401367188
 70
   192
  0
VERTEX
  5
2AB
  8
0
 10
49.10962295532227
 20
-310.7860412597656
 30
258.8500061035156
 70
   192
  0
VERTEX
  5
2AC
  8
0
 10
49.8945198059082
 20
-310.7867126464844
 30
258.1359558105469
 70
   192
  0
VERTEX
  5
2AD
  8
0
 10
50.66091537475586
 20
-310.7912292480469
 30
257.4006652832031
 70
   192
  0
VERTEX
  5
2AE
  8
0
 10
51.41164398193359
 20
-310.8003234863281
 30
256.6417846679688
 70
   192
  0
VERTEX
  5
2AF
  8
0
 10
52.15401840209961
 20
-310.8142395019531
 30
255.8523559570312
 70
   192
  0
VERTEX
  5
2B0
  8
0
 10
52.88876724243164
 20
-310.8331604003906
 30
255.0311431884766
 70
   192
  0
VERTEX
  5
2B1
  8
0
 10
53.60903930664062
 20
-310.85693359375
 30
254.1858825683594
 70
   192
  0
VERTEX
  5
2B2
  8
0
 10
54.31241226196289
 20
-310.8854370117188
 30
253.3201751708984
 70
   192
  0
VERTEX
  5
2B3
  8
0
 10
55.01209259033203
 20
-310.9194030761719
 30
252.4174652099609
 70
   192
  0
VERTEX
  5
2B4
  8
0
 10
55.73114776611328
 20
-310.9606628417969
 30
251.4444580078125
 70
   192
  0
VERTEX
  5
2B5
  8
0
 10
56.49019241333008
 20
-311.0116882324219
 30
250.3652191162109
 70
   192
  0
VERTEX
  5
2B6
  8
0
 10
57.2989616394043
 20
-311.0749206542969
 30
249.1534271240234
 70
   192
  0
VERTEX
  5
2B7
  8
0
 10
58.15529251098633
 20
-311.1524353027344
 30
247.7972106933594
 70
   192
  0
VERTEX
  5
2B8
  8
0
 10
59.05043029785156
 20
-311.2453002929688
 30
246.2945861816406
 70
   192
  0
VERTEX
  5
2B9
  8
0
 10
59.97264862060547
 20
-311.3539428710938
 30
244.6495361328125
 70
   192
  0
VERTEX
  5
2BA
  8
0
 10
60.90918731689453
 20
-311.4783325195312
 30
242.8704528808594
 70
   192
  0
VERTEX
  5
2BB
  8
0
 10
61.85109329223633
 20
-311.6185302734375
 30
240.9617919921875
 70
   192
  0
VERTEX
  5
2BC
  8
0
 10
62.79803848266602
 20
-311.7755737304688
 30
238.9119262695312
 70
   192
  0
VERTEX
  5
2BD
  8
0
 10
63.75715637207031
 20
-311.9518127441406
 30
236.68994140625
 70
   192
  0
VERTEX
  5
2BE
  8
0
 10
64.73426818847656
 20
-312.1500244140625
 30
234.2607421875
 70
   192
  0
VERTEX
  5
2BF
  8
0
 10
65.7285385131836
 20
-312.3721313476562
 30
231.5992889404297
 70
   192
  0
VERTEX
  5
2C0
  8
0
 10
66.7347183227539
 20
-312.6189880371094
 30
228.6882934570312
 70
   192
  0
VERTEX
  5
2C1
  8
0
 10
67.74816131591797
 20
-312.8918151855469
 30
225.5046234130859
 70
   192
  0
VERTEX
  5
2C2
  8
0
 10
68.76630401611328
 20
-313.1930236816406
 30
222.0103607177734
 70
   192
  0
VERTEX
  5
2C3
  8
0
 10
69.78659057617188
 20
-313.5266723632812
 30
218.1515350341797
 70
   192
  0
VERTEX
  5
2C4
  8
0
 10
70.80217742919922
 20
-313.8984985351562
 30
213.8615112304688
 70
   192
  0
VERTEX
  5
2C5
  8
0
 10
71.78987121582031
 20
-314.3126831054688
 30
209.115478515625
 70
   192
  0
VERTEX
  5
2C6
  8
0
 10
72.7043228149414
 20
-314.7611389160156
 30
204.0330810546875
 70
   192
  0
VERTEX
  5
2C7
  8
0
 10
73.49757385253906
 20
-315.2178344726562
 30
198.8859100341797
 70
   192
  0
VERTEX
  5
2C8
  8
0
 10
74.14356994628906
 20
-315.65185546875
 30
193.9907836914062
 70
   192
  0
VERTEX
  5
2C9
  8
0
 10
74.65412139892578
 20
-316.0442504882812
 30
189.5266418457031
 70
   192
  0
VERTEX
  5
2CA
  8
0
 10
75.05730438232422
 20
-316.3917236328125
 30
185.5184173583984
 70
   192
  0
VERTEX
  5
2CB
  8
0
 10
75.3812484741211
 20
-316.6965942382812
 30
181.9317932128906
 70
   192
  0
VERTEX
  5
2CC
  8
0
 10
75.64957427978516
 20
-316.9664916992188
 30
178.6787567138672
 70
   192
  0
VERTEX
  5
2CD
  8
0
 10
75.8835678100586
 20
-317.2134094238281
 30
175.6191101074219
 70
   192
  0
VERTEX
  5
2CE
  8
0
 10
76.09944915771484
 20
-317.4471740722656
 30
172.6249389648438
 70
   192
  0
VERTEX
  5
2CF
  8
0
 10
76.3056411743164
 20
-317.6715393066406
 30
169.6357879638672
 70
   192
  0
VERTEX
  5
2D0
  8
0
 10
76.50521087646484
 20
-317.8862915039062
 30
166.6453399658203
 70
   192
  0
VERTEX
  5
2D1
  8
0
 10
76.69877624511719
 20
-318.0911254882812
 30
163.6581420898438
 70
   192
  0
VERTEX
  5
2D2
  8
0
 10
76.88697814941406
 20
-318.2868347167969
 30
160.6667938232422
 70
   192
  0
VERTEX
  5
2D3
  8
0
 10
77.0711441040039
 20
-318.4749755859375
 30
157.6508636474609
 70
   192
  0
VERTEX
  5
2D4
  8
0
 10
77.25013732910156
 20
-318.6546325683594
 30
154.6272583007812
 70
   192
  0
VERTEX
  5
2D5
  8
0
 10
77.421142578125
 20
-318.8233642578125
 30
151.6453857421875
 70
   192
  0
VERTEX
  5
2D6
  8
0
 10
77.58660888671875
 20
-318.98388671875
 30
148.6656036376953
 70
   192
  0
VERTEX
  5
2D7
  8
0
 10
77.75340270996094
 20
-319.1428833007812
 30
145.5597229003906
 70
   192
  0
VERTEX
  5
2D8
  8
0
 10
77.92586517333984
 20
-319.3042602539062
 30
142.2296600341797
 70
   192
  0
VERTEX
  5
2D9
  8
0
 10
78.10459899902344
 20
-319.4681701660156
 30
138.6378326416016
 70
   192
  0
VERTEX
  5
2DA
  8
0
 10
78.2890853881836
 20
-319.6338195800781
 30
134.7618865966797
 70
   192
  0
VERTEX
  5
2DB
  8
0
 10
78.47866821289062
 20
-319.800537109375
 30
130.5719909667969
 70
   192
  0
VERTEX
  5
2DC
  8
0
 10
78.67259979248047
 20
-319.9676513671875
 30
126.0292282104492
 70
   192
  0
VERTEX
  5
2DD
  8
0
 10
78.86984252929688
 20
-320.1343994140625
 30
121.0880813598633
 70
   192
  0
VERTEX
  5
2DE
  8
0
 10
79.06875610351562
 20
-320.2997131347656
 30
115.7018127441406
 70
   192
  0
VERTEX
  5
2DF
  8
0
 10
79.266845703125
 20
-320.4621276855469
 30
109.8284072875977
 70
   192
  0
VERTEX
  5
2E0
  8
0
 10
79.46123504638672
 20
-320.6197509765625
 30
103.432243347168
 70
   192
  0
VERTEX
  5
2E1
  8
0
 10
79.64897918701172
 20
-320.7709350585938
 30
96.47386932373047
 70
   192
  0
VERTEX
  5
2E2
  8
0
 10
79.82748413085938
 20
-320.9140930175781
 30
88.88776397705078
 70
   192
  0
VERTEX
  5
2E3
  8
0
 10
79.99430847167969
 20
-321.0473022460938
 30
80.56892395019531
 70
   192
  0
VERTEX
  5
2E4
  8
0
 10
80.14749145507812
 20
-321.1676635742188
 30
71.39183807373047
 70
   192
  0
VERTEX
  5
2E5
  8
0
 10
80.28584289550781
 20
-321.2713623046875
 30
61.2318000793457
 70
   192
  0
VERTEX
  5
2E6
  8
0
 10
80.40950012207031
 20
-321.35400390625
 30
49.98081970214844
 70
   192
  0
VERTEX
  5
2E7
  8
0
 10
80.52032470703125
 20
-321.41162109375
 30
37.63166809082031
 70
   192
  0
VERTEX
  5
2E8
  8
0
 10
80.6231460571289
 20
-321.4419555664062
 30
24.52660179138184
 70
   192
  0
VERTEX
  5
2E9
  8
0
 10
80.7234878540039
 20
-321.4485778808594
 30
11.67290306091309
 70
   192
  0
VERTEX
  5
2EA
  8
0
 10
80.82615661621094
 20
-321.4414367675781
 30
-0.0000000755752936
 70
   192
  0
VERTEX
  5
2EB
  8
0
 10
91.06655883789062
 20
-268.4734802246094
 30
0.0000000000000813
 70
   192
  0
VERTEX
  5
2EC
  8
0
 10
99.54136657714844
 20
-215.1717224121094
 30
0.0000000000000626
 70
   192
  0
VERTEX
  5
2ED
  8
0
 10
106.2272109985352
 20
-161.6241760253906
 30
0.0000000000000439
 70
   192
  0
VERTEX
  5
2EE
  8
0
 10
111.1160278320312
 20
-107.875358581543
 30
0.0000000000000251
 70
   192
  0
VERTEX
  5
2EF
  8
0
 10
114.2057495117188
 20
-53.97034454345703
 30
0.0000000000000062
 70
   192
  0
VERTEX
  5
2F0
  8
0
 10
115.5
 20
-0.0000000000000011
 30
-0.0000000000000127
 70
   192
  0
VERTEX
  5
2F1
  8
0
 10
114.9948196411133
 20
-0.0000000000000032
 30
28.77238082885742
 70
   192
  0
VERTEX
  5
2F2
  8
0
 10
114.4938507080078
 20
-0.0000000000000032
 30
55.2982292175293
 70
   192
  0
VERTEX
  5
2F3
  8
0
 10
113.9668197631836
 20
-0.0000000000000033
 30
79.67893981933594
 70
   192
  0
VERTEX
  5
2F4
  8
0
 10
113.3992691040039
 20
-0.0000000000000033
 30
102.0445556640625
 70
   192
  0
VERTEX
  5
2F5
  8
0
 10
112.7713012695312
 20
-0.0000000000000033
 30
122.5431900024414
 70
   192
  0
VERTEX
  5
2F6
  8
0
 10
112.0217208862305
 20
-0.0000000000000033
 30
141.2671813964844
 70
   192
  0
VERTEX
  5
2F7
  8
0
 10
111.1124420166016
 20
-0.0000000000000034
 30
158.3242950439453
 70
   192
  0
VERTEX
  5
2F8
  8
0
 10
110.0337905883789
 20
-0.0000000000000034
 30
173.8799438476562
 70
   192
  0
VERTEX
  5
2F9
  8
0
 10
108.7672958374023
 20
-0.0000000000000034
 30
188.0505828857422
 70
   192
  0
VERTEX
  5
2FA
  8
0
 10
107.307243347168
 20
-0.0000000000000034
 30
200.8048400878906
 70
   192
  0
VERTEX
  5
2FB
  8
0
 10
105.6900100708008
 20
-0.0000000000000034
 30
212.1167755126953
 70
   192
  0
VERTEX
  5
2FC
  8
0
 10
103.9405670166016
 20
-0.0000000000000035
 30
222.2386322021484
 70
   192
  0
VERTEX
  5
2FD
  8
0
 10
101.9961700439453
 20
-0.0000000000000035
 30
231.6101531982422
 70
   192
  0
VERTEX
  5
2FE
  8
0
 10
99.74454498291016
 20
-0.0000000000000035
 30
240.6739959716797
 70
   192
  0
VERTEX
  5
2FF
  8
0
 10
97.03067779541016
 20
-0.0000000000000035
 30
249.7480773925781
 70
   192
  0
VERTEX
  5
300
  8
0
 10
93.74728393554688
 20
-0.0000000000000035
 30
258.8270874023438
 70
   192
  0
VERTEX
  5
301
  8
0
 10
89.89859771728516
 20
-0.0000000000000035
 30
267.6426086425781
 70
   192
  0
VERTEX
  5
302
  8
0
 10
85.69586944580078
 20
-0.0000000000000035
 30
275.5916137695312
 70
   192
  0
VERTEX
  5
303
  8
0
 10
81.27732849121094
 20
-0.0000000000000035
 30
282.467529296875
 70
   192
  0
VERTEX
  5
304
  8
0
 10
76.61422729492188
 20
-0.0000000000000035
 30
288.3963012695312
 70
   192
  0
VERTEX
  5
305
  8
0
 10
71.58655548095703
 20
-0.0000000000000035
 30
293.5483093261719
 70
   192
  0
VERTEX
  5
306
  8
0
 10
66.06583404541016
 20
-0.0000000000000035
 30
298.0207214355469
 70
   192
  0
VERTEX
  5
307
  8
0
 10
59.89945602416992
 20
-0.0000000000000036
 30
301.9031677246094
 70
   192
  0
VERTEX
  5
308
  8
0
 10
53.02531051635742
 20
-0.0000000000000036
 30
305.2592468261719
 70
   192
  0
VERTEX
  5
309
  8
0
 10
45.42493057250977
 20
-0.0000000000000036
 30
308.0870056152344
 70
   192
  0
VERTEX
  5
30A
  8
0
 10
37.09515380859375
 20
-0.0000000000000036
 30
310.3650207519531
 70
   192
  0
VERTEX
  5
30B
  8
0
 10
28.13862800598145
 20
-0.0000000000000036
 30
312.0731506347656
 70
   192
  0
VERTEX
  5
30C
  8
0
 10
18.76135444641113
 20
-0.0000000000000036
 30
313.2118835449219
 70
   192
  0
VERTEX
  5
30D
  8
0
 10
9.282927513122559
 20
-0.0000000000000036
 30
313.8226623535156
 70
   192
  0
VERTEX
  5
30E
  8
0
 10
-0.0000000000000031
 20
0.0
 30
314.0
 70
   192
  0
VERTEX
  5
30F
  8
0
 10
0.0000000000000078
 20
-52.78672409057617
 30
311.8605346679688
 70
   192
  0
VERTEX
  5
310
  8
0
 10
0.0000000000000063
 20
-105.2106094360352
 30
307.7508544921875
 70
   192
  0
VERTEX
  5
311
  8
0
 10
0.0000000000000048
 20
-157.3102722167969
 30
301.6750793457031
 70
   192
  0
VERTEX
  5
312
  8
0
 10
0.0000000000000033
 20
-209.1233367919922
 30
293.6316528320312
 70
   192
  0
VERTEX
  5
313
  8
0
 10
0.0000000000000017
 20
-260.6866149902344
 30
283.6134643554688
 70
   192
  0
VERTEX
  5
314
  8
0
 10
21.50439453125
 20
-285.0178833007812
 30
276.824951171875
 70
   192
  0
VERTEX
  5
315
  8
0
 10
25.47036552429199
 20
-190.0990295410156
 30
295.01318359375
 70
   192
  0
VERTEX
  5
316
  8
0
 10
28.87175369262695
 20
-95.2863540649414
 30
306.4838256835938
 70
   192
  0
VERTEX
  5
317
  8
0
 10
36.8040657043457
 20
-285.4101257324219
 30
272.9071350097656
 70
   192
  0
VERTEX
  5
318
  8
0
 10
44.57183456420898
 20
-190.3862152099609
 30
289.5790710449219
 70
   192
  0
VERTEX
  5
319
  8
0
 10
51.30965423583984
 20
-95.41973876953125
 30
299.6670227050781
 70
   192
  0
VERTEX
  5
31A
  8
0
 10
46.67897796630859
 20
-285.8867797851562
 30
267.7127075195312
 70
   192
  0
VERTEX
  5
31B
  8
0
 10
56.92722320556641
 20
-190.7175445556641
 30
282.11962890625
 70
   192
  0
VERTEX
  5
31C
  8
0
 10
65.79301452636719
 20
-95.57748413085938
 30
290.1004333496094
 70
   192
  0
VERTEX
  5
31D
  8
0
 10
55.41640472412109
 20
-286.5883178710938
 30
259.7508239746094
 70
   192
  0
VERTEX
  5
31E
  8
0
 10
67.38667297363281
 20
-191.1935729980469
 30
270.8838195800781
 70
   192
  0
VERTEX
  5
31F
  8
0
 10
77.61243438720703
 20
-95.80701446533203
 30
275.8082885742188
 70
   192
  0
VERTEX
  5
320
  8
0
 10
64.28556823730469
 20
-287.7775268554688
 30
245.9082183837891
 70
   192
  0
VERTEX
  5
321
  8
0
 10
77.4195327758789
 20
-191.9880218505859
 30
252.7987365722656
 70
   192
  0
VERTEX
  5
322
  8
0
 10
88.35615539550781
 20
-96.19319152832031
 30
253.8220825195312
 70
   192
  0
VERTEX
  5
323
  8
0
 10
72.10963439941406
 20
-289.4433898925781
 30
224.9424743652344
 70
   192
  0
VERTEX
  5
324
  8
0
 10
85.7959976196289
 20
-193.0870819091797
 30
227.2267608642578
 70
   192
  0
VERTEX
  5
325
  8
0
 10
96.73393249511719
 20
-96.72898864746094
 30
224.1563262939453
 70
   192
  0
VERTEX
  5
326
  8
0
 10
76.33930206298828
 20
-290.7391357421875
 30
206.2501220703125
 70
   192
  0
VERTEX
  5
327
  8
0
 10
90.31912231445312
 20
-193.9305267333984
 30
204.7819213867188
 70
   192
  0
VERTEX
  5
328
  8
0
 10
101.092887878418
 20
-97.13941955566406
 30
198.4683532714844
 70
   192
  0
VERTEX
  5
329
  8
0
 10
79.1351089477539
 20
-291.9402770996094
 30
185.8527221679688
 70
   192
  0
VERTEX
  5
32A
  8
0
 10
93.4683837890625
 20
-194.6985778808594
 30
180.2493591308594
 70
   192
  0
VERTEX
  5
32B
  8
0
 10
104.1030197143555
 20
-97.51154327392578
 30
170.4348754882812
 70
   192
  0
VERTEX
  5
32C
  8
0
 10
81.47235870361328
 20
-293.2989196777344
 30
157.1256866455078
 70
   192
  0
VERTEX
  5
32D
  8
0
 10
96.2143783569336
 20
-195.5467529296875
 30
147.1649322509766
 70
   192
  0
VERTEX
  5
32E
  8
0
 10
106.639030456543
 20
-97.92091369628906
 30
133.907470703125
 70
   192
  0
VERTEX
  5
32F
  8
0
 10
85.20256805419922
 20
-294.9527893066406
 30
68.10576629638672
 70
   192
  0
VERTEX
  5
330
  8
0
 10
100.5532608032227
 20
-196.4799346923828
 30
59.42774200439453
 70
   192
  0
VERTEX
  5
331
  8
0
 10
110.3533325195312
 20
-98.35940551757812
 30
49.59369659423828
 70
   192
  0
VERTEX
  5
332
  8
0
 10
0.0
 20
0.0
 30
0.0
 70
   128
 71
   126
 72
     1
 73
   127
  0
VERTEX
  5
333
  8
0
 10
0.0
 20
0.0
 30
0.0
 70
   128
 71
   128
 72
   127
 73
   130
 74
   131
  0
VERTEX
  5
334
  8
0
 10
0.0
 20
0.0
 30
0.0
 70
   128
 71
   131
 72
   132
 73
   129
 74
   128
  0
VERTEX
  5
335
  8
0
 10
0.0
 20
0.0
 30
0.0
 70
   128
 71
   134
 72
   131
 73
   130
 74
   133
  0
VERTEX
  5
336
  8
0
 10
0.0
 20
0.0
 30
0.0
 70
   128
 71
   133
 72
   136
 73
   137
 74
   134
  0
VERTEX
  5
337
  8
0
 10
0.0
 20
0.0
 30
0.0
 70
   128
 71
    21
 72
   133
 73
    20
  0
VERTEX
  5
338
  8
0
 10
0.0
 20
0.0
 30
0.0
 70
   128
 71
    21
 72
   136
 73
   133
  0
VERTEX
  5
339
  8
0
 10
0.0
 20
0.0
 30
0.0
 70
   128
 71
    21
 72
    22
 73
   136
  0
VERTEX
  5
33A
  8
0
 10
0.0
 20
0.0
 30
0.0
 70
   128
 71
   136
 72
    22
 73
    23
  0
VERTEX
  5
33B
  8
0
 10
0.0
 20
0.0
 30
0.0
 70
   128
 71
    24
 72
   136
 73
    23
  0
VERTEX
  5
33C
  8
0
 10
0.0
 20
0.0
 30
0.0
 70
   128
 71
    24
 72
    25
 73
   136
  0
VERTEX
  5
33D
  8
0
 10
0.0
 20
0.0
 30
0.0
 70
   128
 71
   136
 72
    25
 73
    26
  0
VERTEX
  5
33E
  8
0
 10
0.0
 20
0.0
 30
0.0
 70
   128
 71
    27
 72
   136
 73
    26
  0
VERTEX
  5
33F
  8
0
 10
0.0
 20
0.0
 30
0.0
 70
   128
 71
    27
 72
    28
 73
   136
  0
VERTEX
  5
340
  8
0
 10
0.0
 20
0.0
 30
0.0
 70
   128
 71
   136
 72
    28
 73
    29
  0
VERTEX
  5
341
  8
0
 10
0.0
 20
0.0
 30
0.0
 70
   128
 71
    30
 72
   136
 73
    29
  0
VERTEX
  5
342
  8
0
 10
0.0
 20
0.0
 30
0.0
 70
   128
 71
    30
 72
    31
 73
   136
  0
VERTEX
  5
343
  8
0
 10
0.0
 20
0.0
 30
0.0
 70
   128
 71
   136
 72
    31
 73
    32
  0
VERTEX
  5
344
  8
0
 10
0.0
 20
0.0
 30
0.0
 70
   128
 71
   139
 72
    32
 73
    33
  0
VERTEX
  5
345
  8
0
 10
0.0
 20
0.0
 30
0.0
 70
   128
 71
    34
 72
   139
 73
    33
  0
VERTEX
  5
346
  8
0
 10
0.0
 20
0.0
 30
0.0
 70
   128
 71
    34
 72
    35
 73
   139
  0
VERTEX
  5
347
  8
0
 10
0.0
 20
0.0
 30
0.0
 70
   128
 71
   139
 72
    35
 73
    36
  0
VERTEX
  5
348
  8
0
 10
0.0
 20
0.0
 30
0.0
 70
   128
 71
    37
 72
   139
 73
    36
  0
VERTEX
  5
349
  8
0
 10
0.0
 20
0.0
 30
0.0
 70
   128
 71
    37
 72
    38
 73
   139
  0
VERTEX
  5
34A
  8
0
 10
0.0
 20
0.0
 30
0.0
 70
   128
 71
   139
 72
    38
 73
    39
  0
VERTEX
  5
34B
  8
0
 10
0.0
 20
0.0
 30
0.0
 70
   128
 71
    40
 72
   139
 73
    39
  0
VERTEX
  5
34C
  8
0
 10
0.0
 20
0.0
 30
0.0
 70
   128
 71
    40
 72
    41
 73
   139
  0
VERTEX
  5
34D
  8
0
 10
0.0
 20
0.0
 30
0.0
 70
   128
 71
   139
 72
    41
 73
   142
  0
VERTEX
  5
34E
  8
0
 10
0.0
 20
0.0
 30
0.0
 70
   128
 71
   143
 72
   142
 73
   145
 74
   146
  0
VERTEX
  5
34F
  8
0
 10
0.0
 20
0.0
 30
0.0
 70
   128
 71
   146
 72
   147
 73
   144
 74
   143
  0
VERTEX
  5
350
  8
0
 10
0.0
 20
0.0
 30
0.0
 70
   128
 71
   149
 72
   146
 73
   145
 74
   148
  0
VERTEX
  5
351
  8
0
 10
0.0
 20
0.0
 30
0.0
 70
   128
 71
   148
 72
   151
 73
   152
 74
   149
  0
VERTEX
  5
352
  8
0
 10
0.0
 20
0.0
 30
0.0
 70
   128
 71
    57
 72
   148
 73
    56
  0
VERTEX
  5
353
  8
0
 10
0.0
 20
0.0
 30
0.0
 70
   128
 71
    57
 72
   151
 73
   148
  0
VERTEX
  5
354
  8
0
 10
0.0
 20
0.0
 30
0.0
 70
   128
 71
    57
 72
    58
 73
   151
  0
VERTEX
  5
355
  8
0
 10
0.0
 20
0.0
 30
0.0
 70
   128
 71
   151
 72
    58
 73
    59
  0
VERTEX
  5
356
  8
0
 10
0.0
 20
0.0
 30
0.0
 70
   128
 71
    60
 72
   151
 73
    59
  0
VERTEX
  5
357
  8
0
 10
0.0
 20
0.0
 30
0.0
 70
   128
 71
    60
 72
    61
 73
   151
  0
VERTEX
  5
358
  8
0
 10
0.0
 20
0.0
 30
0.0
 70
   128
 71
   151
 72
    61
 73
    62
  0
VERTEX
  5
359
  8
0
 10
0.0
 20
0.0
 30
0.0
 70
   128
 71
    63
 72
   151
 73
    62
  0
VERTEX
  5
35A
  8
0
 10
0.0
 20
0.0
 30
0.0
 70
   128
 71
    63
 72
    64
 73
   151
  0
VERTEX
  5
35B
  8
0
 10
0.0
 20
0.0
 30
0.0
 70
   128
 71
   151
 72
    64
 73
    65
  0
VERTEX
  5
35C
  8
0
 10
0.0
 20
0.0
 30
0.0
 70
   128
 71
    66
 72
   151
 73
    65
  0
VERTEX
  5
35D
  8
0
 10
0.0
 20
0.0
 30
0.0
 70
   128
 71
    66
 72
    67
 73
   151
  0
VERTEX
  5
35E
  8
0
 10
0.0
 20
0.0
 30
0.0
 70
   128
 71
   151
 72
    67
 73
    68
  0
VERTEX
  5
35F
  8
0
 10
0.0
 20
0.0
 30
0.0
 70
   128
 71
    69
 72
   151
 73
    68
  0
VERTEX
  5
360
  8
0
 10
0.0
 20
0.0
 30
0.0
 70
   128
 71
    69
 72
    70
 73
   151
  0
VERTEX
  5
361
  8
0
 10
0.0
 20
0.0
 30
0.0
 70
   128
 71
   151
 72
    70
 73
    71
  0
VERTEX
  5
362
  8
0
 10
0.0
 20
0.0
 30
0.0
 70
   128
 71
    72
 72
   151
 73
    71
  0
VERTEX
  5
363
  8
0
 10
0.0
 20
0.0
 30
0.0
 70
   128
 71
    72
 72
   154
 73
   151
  0
VERTEX
  5
364
  8
0
 10
0.0
 20
0.0
 30
0.0
 70
   128
 71
    72
 72
    73
 73
   154
  0
VERTEX
  5
365
  8
0
 10
0.0
 20
0.0
 30
0.0
 70
   128
 71
   154
 72
    73
 73
    74
  0
VERTEX
  5
366
  8
0
 10
0.0
 20
0.0
 30
0.0
 70
   128
 71
    75
 72
   154
 73
    74
  0
VERTEX
  5
367
  8
0
 10
0.0
 20
0.0
 30
0.0
 70
   128
 71
    75
 72
    76
 73
   154
  0
VERTEX
  5
368
  8
0
 10
0.0
 20
0.0
 30
0.0
 70
   128
 71
   154
 72
    76
 73
    77
  0
VERTEX
  5
369
  8
0
 10
0.0
 20
0.0
 30
0.0
 70
   128
 71
    78
 72
   154
 73
    77
  0
VERTEX
  5
36A
  8
0
 10
0.0
 20
0.0
 30
0.0
 70
   128
 71
    78
 72
    79
 73
   154
  0
VERTEX
  5
36B
  8
0
 10
0.0
 20
0.0
 30
0.0
 70
   128
 71
   154
 72
    79
 73
    80
  0
VERTEX
  5
36C
  8
0
 10
0.0
 20
0.0
 30
0.0
 70
   128
 71
    81
 72
   154
 73
    80
  0
VERTEX
  5
36D
  8
0
 10
0.0
 20
0.0
 30
0.0
 70
   128
 71
    81
 72
    82
 73
   154
  0
VERTEX
  5
36E
  8
0
 10
0.0
 20
0.0
 30
0.0
 70
   128
 71
   154
 72
    82
 73
    83
  0
VERTEX
  5
36F
  8
0
 10
0.0
 20
0.0
 30
0.0
 70
   128
 71
    84
 72
   154
 73
    83
  0
VERTEX
  5
370
  8
0
 10
0.0
 20
0.0
 30
0.0
 70
   128
 71
    84
 72
    86
 73
   154
  0
VERTEX
  5
371
  8
0
 10
0.0
 20
0.0
 30
0.0
 70
   128
 71
    84
 72
    85
 73
    86
  0
VERTEX
  5
372
  8
0
 10
0.0
 20
0.0
 30
0.0
 70
   128
 71
     1
 72
     2
 73
   127
  0
VERTEX
  5
373
  8
0
 10
0.0
 20
0.0
 30
0.0
 70
   128
 71
   127
 72
     2
 73
     3
  0
VERTEX
  5
374
  8
0
 10
0.0
 20
0.0
 30
0.0
 70
   128
 71
     4
 72
   127
 73
     3
  0
VERTEX
  5
375
  8
0
 10
0.0
 20
0.0
 30
0.0
 70
   128
 71
     4
 72
     5
 73
   127
  0
VERTEX
  5
376
  8
0
 10
0.0
 20
0.0
 30
0.0
 70
   128
 71
   127
 72
     5
 73
     6
  0
VERTEX
  5
377
  8
0
 10
0.0
 20
0.0
 30
0.0
 70
   128
 71
     7
 72
   127
 73
     6
  0
VERTEX
  5
378
  8
0
 10
0.0
 20
0.0
 30
0.0
 70
   128
 71
     7
 72
     8
 73
   127
  0
VERTEX
  5
379
  8
0
 10
0.0
 20
0.0
 30
0.0
 70
   128
 71
   127
 72
     8
 73
   130
  0
VERTEX
  5
37A
  8
0
 10
0.0
 20
0.0
 30
0.0
 70
   128
 71
   130
 72
     8
 73
     9
  0
VERTEX
  5
37B
  8
0
 10
0.0
 20
0.0
 30
0.0
 70
   128
 71
    10
 72
   130
 73
     9
  0
VERTEX
  5
37C
  8
0
 10
0.0
 20
0.0
 30
0.0
 70
   128
 71
    10
 72
    11
 73
   130
  0
VERTEX
  5
37D
  8
0
 10
0.0
 20
0.0
 30
0.0
 70
   128
 71
   130
 72
    11
 73
    12
  0
VERTEX
  5
37E
  8
0
 10
0.0
 20
0.0
 30
0.0
 70
   128
 71
    13
 72
   130
 73
    12
  0
VERTEX
  5
37F
  8
0
 10
0.0
 20
0.0
 30
0.0
 70
   128
 71
    13
 72
    14
 73
   130
  0
VERTEX
  5
380
  8
0
 10
0.0
 20
0.0
 30
0.0
 70
   128
 71
   130
 72
    14
 73
   133
  0
VERTEX
  5
381
  8
0
 10
0.0
 20
0.0
 30
0.0
 70
   128
 71
   133
 72
    14
 73
    15
  0
VERTEX
  5
382
  8
0
 10
0.0
 20
0.0
 30
0.0
 70
   128
 71
    16
 72
   133
 73
    15
  0
VERTEX
  5
383
  8
0
 10
0.0
 20
0.0
 30
0.0
 70
   128
 71
    16
 72
    17
 73
   133
  0
VERTEX
  5
384
  8
0
 10
0.0
 20
0.0
 30
0.0
 70
   128
 71
   133
 72
    17
 73
    18
  0
VERTEX
  5
385
  8
0
 10
0.0
 20
0.0
 30
0.0
 70
   128
 71
    19
 72
   133
 73
    18
  0
VERTEX
  5
386
  8
0
 10
0.0
 20
0.0
 30
0.0
 70
   128
 71
    19
 72
    20
 73
   133
  0
VERTEX
  5
387
  8
0
 10
0.0
 20
0.0
 30
0.0
 70
   128
 71
    41
 72
    42
 73
   142
  0
VERTEX
  5
388
  8
0
 10
0.0
 20
0.0
 30
0.0
 70
   128
 71
   142
 72
    42
 73
    43
  0
VERTEX
  5
389
  8
0
 10
0.0
 20
0.0
 30
0.0
 70
   128
 71
    44
 72
   142
 73
    43
  0
VERTEX
  5
38A
  8
0
 10
0.0
 20
0.0
 30
0.0
 70
   128
 71
    44
 72
    45
 73
   142
  0
VERTEX
  5
38B
  8
0
 10
0.0
 20
0.0
 30
0.0
 70
   128
 71
   142
 72
    45
 73
    46
  0
VERTEX
  5
38C
  8
0
 10
0.0
 20
0.0
 30
0.0
 70
   128
 71
    47
 72
   142
 73
    46
  0
VERTEX
  5
38D
  8
0
 10
0.0
 20
0.0
 30
0.0
 70
   128
 71
    47
 72
   145
 73
   142
  0
VERTEX
  5
38E
  8
0
 10
0.0
 20
0.0
 30
0.0
 70
   128
 71
    47
 72
    48
 73
   145
  0
VERTEX
  5
38F
  8
0
 10
0.0
 20
0.0
 30
0.0
 70
   128
 71
   145
 72
    48
 73
    49
  0
VERTEX
  5
390
  8
0
 10
0.0
 20
0.0
 30
0.0
 70
   128
 71
    50
 72
   145
 73
    49
  0
VERTEX
  5
391
  8
0
 10
0.0
 20
0.0
 30
0.0
 70
   128
 71
    50
 72
    51
 73
   145
  0
VERTEX
  5
392
  8
0
 10
0.0
 20
0.0
 30
0.0
 70
   128
 71
   145
 72
    51
 73
   148
  0
VERTEX
  5
393
  8
0
 10
0.0
 20
0.0
 30
0.0
 70
   128
 71
   148
 72
    51
 73
    52
  0
VERTEX
  5
394
  8
0
 10
0.0
 20
0.0
 30
0.0
 70
   128
 71
    53
 72
   148
 73
    52
  0
VERTEX
  5
395
  8
0
 10
0.0
 20
0.0
 30
0.0
 70
   128
 71
    53
 72
    54
 73
   148
  0
VERTEX
  5
396
  8
0
 10
0.0
 20
0.0
 30
0.0
 70
   128
 71
   148
 72
    54
 73
    55
  0
VERTEX
  5
397
  8
0
 10
0.0
 20
0.0
 30
0.0
 70
   128
 71
    56
 72
   148
 73
    55
  0
VERTEX
  5
398
  8
0
 10
0.0
 20
0.0
 30
0.0
 70
   128
 71
    86
 72
    87
 73
   154
  0
VERTEX
  5
399
  8
0
 10
0.0
 20
0.0
 30
0.0
 70
   128
 71
   154
 72
    87
 73
   155
  0
VERTEX
  5
39A
  8
0
 10
0.0
 20
0.0
 30
0.0
 70
   128
 71
   152
 72
   155
 73
   156
 74
   153
  0
VERTEX
  5
39B
  8
0
 10
0.0
 20
0.0
 30
0.0
 70
   128
 71
   153
 72
   150
 73
   149
 74
   152
  0
VERTEX
  5
39C
  8
0
 10
0.0
 20
0.0
 30
0.0
 70
   128
 71
    97
 72
   153
 73
    96
  0
VERTEX
  5
39D
  8
0
 10
0.0
 20
0.0
 30
0.0
 70
   128
 71
    97
 72
   150
 73
   153
  0
VERTEX
  5
39E
  8
0
 10
0.0
 20
0.0
 30
0.0
 70
   128
 71
    97
 72
    98
 73
   150
  0
VERTEX
  5
39F
  8
0
 10
0.0
 20
0.0
 30
0.0
 70
   128
 71
   150
 72
    98
 73
    99
  0
VERTEX
  5
3A0
  8
0
 10
0.0
 20
0.0
 30
0.0
 70
   128
 71
   147
 72
    99
 73
   100
  0
VERTEX
  5
3A1
  8
0
 10
0.0
 20
0.0
 30
0.0
 70
   128
 71
   101
 72
   147
 73
   100
  0
VERTEX
  5
3A2
  8
0
 10
0.0
 20
0.0
 30
0.0
 70
   128
 71
   101
 72
   144
 73
   147
  0
VERTEX
  5
3A3
  8
0
 10
0.0
 20
0.0
 30
0.0
 70
   128
 71
   101
 72
   102
 73
   144
  0
VERTEX
  5
3A4
  8
0
 10
0.0
 20
0.0
 30
0.0
 70
   128
 71
   144
 72
   102
 73
   103
  0
VERTEX
  5
3A5
  8
0
 10
0.0
 20
0.0
 30
0.0
 70
   128
 71
   104
 72
   144
 73
   103
  0
VERTEX
  5
3A6
  8
0
 10
0.0
 20
0.0
 30
0.0
 70
   128
 71
   104
 72
   141
 73
   144
  0
VERTEX
  5
3A7
  8
0
 10
0.0
 20
0.0
 30
0.0
 70
   128
 71
   104
 72
   105
 73
   141
  0
VERTEX
  5
3A8
  8
0
 10
0.0
 20
0.0
 30
0.0
 70
   128
 71
   141
 72
   105
 73
   106
  0
VERTEX
  5
3A9
  8
0
 10
0.0
 20
0.0
 30
0.0
 70
   128
 71
   107
 72
   141
 73
   106
  0
VERTEX
  5
3AA
  8
0
 10
0.0
 20
0.0
 30
0.0
 70
   128
 71
   107
 72
   138
 73
   141
  0
VERTEX
  5
3AB
  8
0
 10
0.0
 20
0.0
 30
0.0
 70
   128
 71
   107
 72
   108
 73
   138
  0
VERTEX
  5
3AC
  8
0
 10
0.0
 20
0.0
 30
0.0
 70
   128
 71
   138
 72
   108
 73
   109
  0
VERTEX
  5
3AD
  8
0
 10
0.0
 20
0.0
 30
0.0
 70
   128
 71
   110
 72
   138
 73
   109
  0
VERTEX
  5
3AE
  8
0
 10
0.0
 20
0.0
 30
0.0
 70
   128
 71
   110
 72
   135
 73
   138
  0
VERTEX
  5
3AF
  8
0
 10
0.0
 20
0.0
 30
0.0
 70
   128
 71
   110
 72
   111
 73
   135
  0
VERTEX
  5
3B0
  8
0
 10
0.0
 20
0.0
 30
0.0
 70
   128
 71
   135
 72
   111
 73
   112
  0
VERTEX
  5
3B1
  8
0
 10
0.0
 20
0.0
 30
0.0
 70
   128
 71
   113
 72
   135
 73
   112
  0
VERTEX
  5
3B2
  8
0
 10
0.0
 20
0.0
 30
0.0
 70
   128
 71
   113
 72
   132
 73
   135
  0
VERTEX
  5
3B3
  8
0
 10
0.0
 20
0.0
 30
0.0
 70
   128
 71
   113
 72
   114
 73
   132
  0
VERTEX
  5
3B4
  8
0
 10
0.0
 20
0.0
 30
0.0
 70
   128
 71
   132
 72
   114
 73
   115
  0
VERTEX
  5
3B5
  8
0
 10
0.0
 20
0.0
 30
0.0
 70
   128
 71
   116
 72
   132
 73
   115
  0
VERTEX
  5
3B6
  8
0
 10
0.0
 20
0.0
 30
0.0
 70
   128
 71
   116
 72
   129
 73
   132
  0
VERTEX
  5
3B7
  8
0
 10
0.0
 20
0.0
 30
0.0
 70
   128
 71
   116
 72
   117
 73
   129
  0
VERTEX
  5
3B8
  8
0
 10
0.0
 20
0.0
 30
0.0
 70
   128
 71
   129
 72
   117
 73
   118
  0
VERTEX
  5
3B9
  8
0
 10
0.0
 20
0.0
 30
0.0
 70
   128
 71
   119
 72
   129
 73
   118
  0
VERTEX
  5
3BA
  8
0
 10
0.0
 20
0.0
 30
0.0
 70
   128
 71
   119
 72
   122
 73
   129
  0
VERTEX
  5
3BB
  8
0
 10
0.0
 20
0.0
 30
0.0
 70
   128
 71
   119
 72
   120
 73
   122
  0
VERTEX
  5
3BC
  8
0
 10
0.0
 20
0.0
 30
0.0
 70
   128
 71
   122
 72
   120
 73
   121
  0
VERTEX
  5
3BD
  8
0
 10
0.0
 20
0.0
 30
0.0
 70
   128
 71
    87
 72
    88
 73
   155
  0
VERTEX
  5
3BE
  8
0
 10
0.0
 20
0.0
 30
0.0
 70
   128
 71
   155
 72
    88
 73
   156
  0
VERTEX
  5
3BF
  8
0
 10
0.0
 20
0.0
 30
0.0
 70
   128
 71
   156
 72
    88
 73
    89
  0
VERTEX
  5
3C0
  8
0
 10
0.0
 20
0.0
 30
0.0
 70
   128
 71
    90
 72
   156
 73
    89
  0
VERTEX
  5
3C1
  8
0
 10
0.0
 20
0.0
 30
0.0
 70
   128
 71
    90
 72
    92
 73
   156
  0
VERTEX
  5
3C2
  8
0
 10
0.0
 20
0.0
 30
0.0
 70
   128
 71
    90
 72
    91
 73
    92
  0
VERTEX
  5
3C3
  8
0
 10
0.0
 20
0.0
 30
0.0
 70
   128
 71
    92
 72
    93
 73
   156
  0
VERTEX
  5
3C4
  8
0
 10
0.0
 20
0.0
 30
0.0
 70
   128
 71
   156
 72
    93
 73
    94
  0
VERTEX
  5
3C5
  8
0
 10
0.0
 20
0.0
 30
0.0
 70
   128
 71
   153
 72
    94
 73
    95
  0
VERTEX
  5
3C6
  8
0
 10
0.0
 20
0.0
 30
0.0
 70
   128
 71
    96
 72
   153
 73
    95
  0
VERTEX
  5
3C7
  8
0
 10
0.0
 20
0.0
 30
0.0
 70
   128
 71
   122
 72
   123
 73
   129
  0
VERTEX
  5
3C8
  8
0
 10
0.0
 20
0.0
 30
0.0
 70
   128
 71
   129
 72
   123
 73
   124
  0
VERTEX
  5
3C9
  8
0
 10
0.0
 20
0.0
 30
0.0
 70
   128
 71
   128
 72
   124
 73
   125
  0
VERTEX
  5
3CA
  8
0
 10
0.0
 20
0.0
 30
0.0
 70
   128
 71
   126
 72
   128
 73
   125
  0
VERTEX
  5
3CB
  8
0
 10
0.0
 20
0.0
 30
0.0
 70
   128
 71
   126
 72
   127
 73
   128
  0
VERTEX
  5
3CC
  8
0
 10
0.0
 20
0.0
 30
0.0
 70
   128
 71
   128
 72
   129
 73
   124
  0
VERTEX
  5
3CD
  8
0
 10
0.0
 20
0.0
 30
0.0
 70
   128
 71
   132
 72
   131
 73
   134
 74
   135
  0
VERTEX
  5
3CE
  8
0
 10
0.0
 20
0.0
 30
0.0
 70
   128
 71
   135
 72
   134
 73
   137
 74
   138
  0
VERTEX
  5
3CF
  8
0
 10
0.0
 20
0.0
 30
0.0
 70
   128
 71
   138
 72
   137
 73
   140
 74
   141
  0
VERTEX
  5
3D0
  8
0
 10
0.0
 20
0.0
 30
0.0
 70
   128
 71
   137
 72
   136
 73
   139
 74
   140
  0
VERTEX
  5
3D1
  8
0
 10
0.0
 20
0.0
 30
0.0
 70
   128
 71
   136
 72
    32
 73
   139
  0
VERTEX
  5
3D2
  8
0
 10
0.0
 20
0.0
 30
0.0
 70
   128
 71
   140
 72
   139
 73
   142
 74
   143
  0
VERTEX
  5
3D3
  8
0
 10
0.0
 20
0.0
 30
0.0
 70
   128
 71
   141
 72
   140
 73
   143
 74
   144
  0
VERTEX
  5
3D4
  8
0
 10
0.0
 20
0.0
 30
0.0
 70
   128
 71
   147
 72
   146
 73
   149
 74
   150
  0
VERTEX
  5
3D5
  8
0
 10
0.0
 20
0.0
 30
0.0
 70
   128
 71
   147
 72
   150
 73
    99
  0
VERTEX
  5
3D6
  8
0
 10
0.0
 20
0.0
 30
0.0
 70
   128
 71
   152
 72
   151
 73
   154
 74
   155
  0
VERTEX
  5
3D7
  8
0
 10
0.0
 20
0.0
 30
0.0
 70
   128
 71
   153
 72
   156
 73
    94
  0
SEQEND
  5
3D8
  8
LAYER1
 62
     7
  0
POLYLINE
  5
3D9
  8
LAYER1
 62
     7
 66
     1
 10
0.0
 20
0.0
 30
0.0
 70
    64
 71
   242
 72
   258
  0
VERTEX
  5
3DA
  8
0
 10
-0.0001139735613833
 20
-322.7590942382812
 30
261.227294921875
 70
   192
  0
VERTEX
  5
3DB
  8
0
 10
5.005630493164062
 20
-322.726318359375
 30
261.1779174804688
 70
   192
  0
VERTEX
  5
3DC
  8
0
 10
9.484354972839355
 20
-322.6450500488281
 30
261.0316467285156
 70
   192
  0
VERTEX
  5
3DD
  8
0
 10
13.49996471405029
 20
-322.5357360839844
 30
260.7933044433594
 70
   192
  0
VERTEX
  5
3DE
  8
0
 10
17.07821273803711
 20
-322.4142456054688
 30
260.4727172851562
 70
   192
  0
VERTEX
  5
3DF
  8
0
 10
20.25926399230957
 20
-322.2916564941406
 30
260.0821533203125
 70
   192
  0
VERTEX
  5
3E0
  8
0
 10
23.08849906921387
 20
-322.1751708984375
 30
259.6334838867188
 70
   192
  0
VERTEX
  5
3E1
  8
0
 10
25.60789680480957
 20
-322.0695495605469
 30
259.1365966796875
 70
   192
  0
VERTEX
  5
3E2
  8
0
 10
27.85316276550293
 20
-321.9776916503906
 30
258.6004028320312
 70
   192
  0
VERTEX
  5
3E3
  8
0
 10
29.84342765808105
 20
-321.9013671875
 30
258.0374755859375
 70
   192
  0
VERTEX
  5
3E4
  8
0
 10
31.58811187744141
 20
-321.8410034179688
 30
257.4649658203125
 70
   192
  0
VERTEX
  5
3E5
  8
0
 10
33.12174606323242
 20
-321.7953186035156
 30
256.8906555175781
 70
   192
  0
VERTEX
  5
3E6
  8
0
 10
34.49587249755859
 20
-321.7623901367188
 30
256.3102416992188
 70
   192
  0
VERTEX
  5
3E7
  8
0
 10
35.74631500244141
 20
-321.7409057617188
 30
255.7197418212891
 70
   192
  0
VERTEX
  5
3E8
  8
0
 10
36.88359832763672
 20
-321.7300415039062
 30
255.1236267089844
 70
   192
  0
VERTEX
  5
3E9
  8
0
 10
37.90276718139648
 20
-321.7287292480469
 30
254.5353088378906
 70
   192
  0
VERTEX
  5
3EA
  8
0
 10
38.79453277587891
 20
-321.7350463867188
 30
253.9738159179688
 70
   192
  0
VERTEX
  5
3EB
  8
0
 10
39.55965042114258
 20
-321.7467651367188
 30
253.4541320800781
 70
   192
  0
VERTEX
  5
3EC
  8
0
 10
40.22206497192383
 20
-321.7619934082031
 30
252.9736022949219
 70
   192
  0
VERTEX
  5
3ED
  8
0
 10
40.82013320922852
 20
-321.7802734375
 30
252.5132141113281
 70
   192
  0
VERTEX
  5
3EE
  8
0
 10
41.38623046875
 20
-321.8018798828125
 30
252.0523529052734
 70
   192
  0
VERTEX
  5
3EF
  8
0
 10
41.93555068969727
 20
-321.8272399902344
 30
251.5800170898438
 70
   192
  0
VERTEX
  5
3F0
  8
0
 10
42.47175216674805
 20
-321.8564758300781
 30
251.0933685302734
 70
   192
  0
VERTEX
  5
3F1
  8
0
 10
42.99863052368164
 20
-321.8898010253906
 30
250.5889434814453
 70
   192
  0
VERTEX
  5
3F2
  8
0
 10
43.52481460571289
 20
-321.9277648925781
 30
250.058349609375
 70
   192
  0
VERTEX
  5
3F3
  8
0
 10
44.05495071411133
 20
-321.970703125
 30
249.4961395263672
 70
   192
  0
VERTEX
  5
3F4
  8
0
 10
44.5888557434082
 20
-322.0187072753906
 30
248.9013214111328
 70
   192
  0
VERTEX
  5
3F5
  8
0
 10
45.12066268920898
 20
-322.0713195800781
 30
248.2795867919922
 70
   192
  0
VERTEX
  5
3F6
  8
0
 10
45.64760208129883
 20
-322.1282043457031
 30
247.6338195800781
 70
   192
  0
VERTEX
  5
3F7
  8
0
 10
46.17962265014648
 20
-322.1905212402344
 30
246.9507904052734
 70
   192
  0
VERTEX
  5
3F8
  8
0
 10
46.7357292175293
 20
-322.2608642578125
 30
246.20263671875
 70
   192
  0
VERTEX
  5
3F9
  8
0
 10
47.33314514160156
 20
-322.3424987792969
 30
245.3587646484375
 70
   192
  0
VERTEX
  5
3FA
  8
0
 10
47.98157501220703
 20
-322.4380493164062
 30
244.3944854736328
 70
   192
  0
VERTEX
  5
3FB
  8
0
 10
48.68158340454102
 20
-322.54931640625
 30
243.2953186035156
 70
   192
  0
VERTEX
  5
3FC
  8
0
 10
49.42651748657227
 20
-322.6768798828125
 30
242.0569610595703
 70
   192
  0
VERTEX
  5
3FD
  8
0
 10
50.20663070678711
 20
-322.8207092285156
 30
240.6805419921875
 70
   192
  0
VERTEX
  5
3FE
  8
0
 10
51.01155471801758
 20
-322.9801940917969
 30
239.1700134277344
 70
   192
  0
VERTEX
  5
3FF
  8
0
 10
51.83368301391602
 20
-323.1549072265625
 30
237.5265350341797
 70
   192
  0
VERTEX
  5
400
  8
0
 10
52.67311859130859
 20
-323.3458557128906
 30
235.7365112304688
 70
   192
  0
VERTEX
  5
401
  8
0
 10
53.53585052490234
 20
-323.5554809570312
 30
233.7707672119141
 70
   192
  0
VERTEX
  5
402
  8
0
 10
54.42691802978516
 20
-323.7864379882812
 30
231.5956726074219
 70
   192
  0
VERTEX
  5
403
  8
0
 10
55.3457145690918
 20
-324.0404052734375
 30
229.1852569580078
 70
   192
  0
VERTEX
  5
404
  8
0
 10
56.2867546081543
 20
-324.31787109375
 30
226.5221405029297
 70
   192
  0
VERTEX
  5
405
  8
0
 10
57.24467849731445
 20
-324.6195373535156
 30
223.5845794677734
 70
   192
  0
VERTEX
  5
406
  8
0
 10
58.21596527099609
 20
-324.9474182128906
 30
220.3375701904297
 70
   192
  0
VERTEX
  5
407
  8
0
 10
59.19643020629883
 20
-325.3047180175781
 30
216.7339324951172
 70
   192
  0
VERTEX
  5
408
  8
0
 10
60.17770385742188
 20
-325.6962585449219
 30
212.715576171875
 70
   192
  0
VERTEX
  5
409
  8
0
 10
61.13816070556641
 20
-326.1246032714844
 30
208.2536163330078
 70
   192
  0
VERTEX
  5
40A
  8
0
 10
62.03678894042969
 20
-326.5805053710938
 30
203.4378204345703
 70
   192
  0
VERTEX
  5
40B
  8
0
 10
62.82427215576172
 20
-327.037841796875
 30
198.5215759277344
 70
   192
  0
VERTEX
  5
40C
  8
0
 10
63.4730224609375
 20
-327.4671630859375
 30
193.8030242919922
 70
   192
  0
VERTEX
  5
40D
  8
0
 10
63.99089050292969
 20
-327.8511047363281
 30
189.4682464599609
 70
   192
  0
VERTEX
  5
40E
  8
0
 10
64.4036865234375
 20
-328.1883239746094
 30
185.5496673583984
 70
   192
  0
VERTEX
  5
40F
  8
0
 10
64.73831176757812
 20
-328.4826049804688
 30
182.0206756591797
 70
   192
  0
VERTEX
  5
410
  8
0
 10
65.01725006103516
 20
-328.7421264648438
 30
178.8057250976562
 70
   192
  0
VERTEX
  5
411
  8
0
 10
65.26216888427734
 20
-328.9793090820312
 30
175.766357421875
 70
   192
  0
VERTEX
  5
412
  8
0
 10
65.48967742919922
 20
-329.2040710449219
 30
172.7756042480469
 70
   192
  0
VERTEX
  5
413
  8
0
 10
65.7081527709961
 20
-329.4201354980469
 30
169.7765350341797
 70
   192
  0
VERTEX
  5
414
  8
0
 10
65.92027282714844
 20
-329.626953125
 30
166.7690734863281
 70
   192
  0
VERTEX
  5
415
  8
0
 10
66.12620544433594
 20
-329.82373046875
 30
163.7644348144531
 70
   192
  0
VERTEX
  5
416
  8
0
 10
66.32653045654297
 20
-330.0111999511719
 30
160.7564697265625
 70
   192
  0
VERTEX
  5
417
  8
0
 10
66.52264404296875
 20
-330.1907348632812
 30
157.7248382568359
 70
   192
  0
VERTEX
  5
418
  8
0
 10
66.71337890625
 20
-330.3615417480469
 30
154.6864471435547
 70
   192
  0
VERTEX
  5
419
  8
0
 10
66.89571380615234
 20
-330.5213012695312
 30
151.6906433105469
 70
   192
  0
VERTEX
  5
41A
  8
0
 10
67.07222747802734
 20
-330.6725769042969
 30
148.6986083984375
 70
   192
  0
VERTEX
  5
41B
  8
0
 10
67.25019073486328
 20
-330.8216552734375
 30
145.5822448730469
 70
   192
  0
VERTEX
  5
41C
  8
0
 10
67.43429565429688
 20
-330.9721374511719
 30
142.2425384521484
 70
   192
  0
VERTEX
  5
41D
  8
0
 10
67.62528991699219
 20
-331.1241149902344
 30
138.6413726806641
 70
   192
  0
VERTEX
  5
41E
  8
0
 10
67.82257843017578
 20
-331.2766418457031
 30
134.7572784423828
 70
   192
  0
VERTEX
  5
41F
  8
0
 10
68.0255126953125
 20
-331.4287719726562
 30
130.5611877441406
 70
   192
  0
VERTEX
  5
420
  8
0
 10
68.23332977294922
 20
-331.579833984375
 30
126.0144500732422
 70
   192
  0
VERTEX
  5
421
  8
0
 10
68.44499969482422
 20
-331.7288818359375
 30
121.071907043457
 70
   192
  0
VERTEX
  5
422
  8
0
 10
68.6588363647461
 20
-331.874755859375
 30
115.6873092651367
 70
   192
  0
VERTEX
  5
423
  8
0
 10
68.87226104736328
 20
-332.0159606933594
 30
109.8185424804688
 70
   192
  0
VERTEX
  5
424
  8
0
 10
69.0822525024414
 20
-332.1506652832031
 30
103.4295120239258
 70
   192
  0
VERTEX
  5
425
  8
0
 10
69.28573608398438
 20
-332.27734375
 30
96.48087310791016
 70
   192
  0
VERTEX
  5
426
  8
0
 10
69.47994995117188
 20
-332.3944396972656
 30
88.90631866455078
 70
   192
  0
VERTEX
  5
427
  8
0
 10
69.66233825683594
 20
-332.4999084472656
 30
80.60050964355469
 70
   192
  0
VERTEX
  5
428
  8
0
 10
69.83084869384766
 20
-332.5909729003906
 30
71.43609619140625
 70
   192
  0
VERTEX
  5
429
  8
0
 10
69.98419189453125
 20
-332.6639709472656
 30
61.286865234375
 70
   192
  0
VERTEX
  5
42A
  8
0
 10
70.12244415283203
 20
-332.7145690917969
 30
50.0444450378418
 70
   192
  0
VERTEX
  5
42B
  8
0
 10
70.24752807617188
 20
-332.7390747070312
 30
37.69812774658203
 70
   192
  0
VERTEX
  5
42C
  8
0
 10
70.36424255371094
 20
-332.7362976074219
 30
24.58451843261719
 70
   192
  0
VERTEX
  5
42D
  8
0
 10
70.47803497314453
 20
-332.7118530273438
 30
11.70191192626953
 70
   192
  0
VERTEX
  5
42E
  8
0
 10
70.59349060058594
 20
-332.6770629882812
 30
-0.0000000008345323
 70
   192
  0
VERTEX
  5
42F
  8
0
 10
72.44796752929688
 20
-331.9637145996094
 30
0.0000000000001035
 70
   192
  0
VERTEX
  5
430
  8
0
 10
74.20057678222656
 20
-331.0060424804688
 30
0.0000000000001032
 70
   192
  0
VERTEX
  5
431
  8
0
 10
75.80089569091797
 20
-329.8320922851562
 30
0.0000000000001028
 70
   192
  0
VERTEX
  5
432
  8
0
 10
77.23745727539062
 20
-328.4513854980469
 30
0.0000000000001023
 70
   192
  0
VERTEX
  5
433
  8
0
 10
78.4793701171875
 20
-326.8910217285156
 30
0.0000000000001017
 70
   192
  0
VERTEX
  5
434
  8
0
 10
79.49980163574219
 20
-325.1865844726562
 30
0.0000000000001011
 70
   192
  0
VERTEX
  5
435
  8
0
 10
80.2870101928711
 20
-323.3595886230469
 30
0.0000000000001005
 70
   192
  0
VERTEX
  5
436
  8
0
 10
80.82615661621094
 20
-321.4414367675781
 30
-0.0000000755752936
 70
   192
  0
VERTEX
  5
437
  8
0
 10
80.7234878540039
 20
-321.4485778808594
 30
11.67290306091309
 70
   192
  0
VERTEX
  5
438
  8
0
 10
80.6231460571289
 20
-321.4419555664062
 30
24.52660179138184
 70
   192
  0
VERTEX
  5
439
  8
0
 10
80.52032470703125
 20
-321.41162109375
 30
37.63166809082031
 70
   192
  0
VERTEX
  5
43A
  8
0
 10
80.40950012207031
 20
-321.35400390625
 30
49.98081970214844
 70
   192
  0
VERTEX
  5
43B
  8
0
 10
80.28584289550781
 20
-321.2713623046875
 30
61.2318000793457
 70
   192
  0
VERTEX
  5
43C
  8
0
 10
80.14749145507812
 20
-321.1676635742188
 30
71.39183807373047
 70
   192
  0
VERTEX
  5
43D
  8
0
 10
79.99430847167969
 20
-321.0473022460938
 30
80.56892395019531
 70
   192
  0
VERTEX
  5
43E
  8
0
 10
79.82748413085938
 20
-320.9140930175781
 30
88.88776397705078
 70
   192
  0
VERTEX
  5
43F
  8
0
 10
79.64897918701172
 20
-320.7709350585938
 30
96.47386932373047
 70
   192
  0
VERTEX
  5
440
  8
0
 10
79.46123504638672
 20
-320.6197509765625
 30
103.432243347168
 70
   192
  0
VERTEX
  5
441
  8
0
 10
79.266845703125
 20
-320.4621276855469
 30
109.8284072875977
 70
   192
  0
VERTEX
  5
442
  8
0
 10
79.06875610351562
 20
-320.2997131347656
 30
115.7018127441406
 70
   192
  0
VERTEX
  5
443
  8
0
 10
78.86984252929688
 20
-320.1343994140625
 30
121.0880813598633
 70
   192
  0
VERTEX
  5
444
  8
0
 10
78.67259979248047
 20
-319.9676513671875
 30
126.0292282104492
 70
   192
  0
VERTEX
  5
445
  8
0
 10
78.47866821289062
 20
-319.800537109375
 30
130.5719909667969
 70
   192
  0
VERTEX
  5
446
  8
0
 10
78.2890853881836
 20
-319.6338195800781
 30
134.7618865966797
 70
   192
  0
VERTEX
  5
447
  8
0
 10
78.10459899902344
 20
-319.4681701660156
 30
138.6378326416016
 70
   192
  0
VERTEX
  5
448
  8
0
 10
77.92586517333984
 20
-319.3042602539062
 30
142.2296600341797
 70
   192
  0
VERTEX
  5
449
  8
0
 10
77.75340270996094
 20
-319.1428833007812
 30
145.5597229003906
 70
   192
  0
VERTEX
  5
44A
  8
0
 10
77.58660888671875
 20
-318.98388671875
 30
148.6656036376953
 70
   192
  0
VERTEX
  5
44B
  8
0
 10
77.421142578125
 20
-318.8233642578125
 30
151.6453857421875
 70
   192
  0
VERTEX
  5
44C
  8
0
 10
77.25013732910156
 20
-318.6546325683594
 30
154.6272583007812
 70
   192
  0
VERTEX
  5
44D
  8
0
 10
77.0711441040039
 20
-318.4749755859375
 30
157.6508636474609
 70
   192
  0
VERTEX
  5
44E
  8
0
 10
76.88697814941406
 20
-318.2868347167969
 30
160.6667938232422
 70
   192
  0
VERTEX
  5
44F
  8
0
 10
76.69877624511719
 20
-318.0911254882812
 30
163.6581420898438
 70
   192
  0
VERTEX
  5
450
  8
0
 10
76.50521087646484
 20
-317.8862915039062
 30
166.6453399658203
 70
   192
  0
VERTEX
  5
451
  8
0
 10
76.3056411743164
 20
-317.6715393066406
 30
169.6357879638672
 70
   192
  0
VERTEX
  5
452
  8
0
 10
76.09944915771484
 20
-317.4471740722656
 30
172.6249389648438
 70
   192
  0
VERTEX
  5
453
  8
0
 10
75.8835678100586
 20
-317.2134094238281
 30
175.6191101074219
 70
   192
  0
VERTEX
  5
454
  8
0
 10
75.64957427978516
 20
-316.9664916992188
 30
178.6787567138672
 70
   192
  0
VERTEX
  5
455
  8
0
 10
75.3812484741211
 20
-316.6965942382812
 30
181.9317932128906
 70
   192
  0
VERTEX
  5
456
  8
0
 10
75.05730438232422
 20
-316.3917236328125
 30
185.5184173583984
 70
   192
  0
VERTEX
  5
457
  8
0
 10
74.65412139892578
 20
-316.0442504882812
 30
189.5266418457031
 70
   192
  0
VERTEX
  5
458
  8
0
 10
74.14356994628906
 20
-315.65185546875
 30
193.9907836914062
 70
   192
  0
VERTEX
  5
459
  8
0
 10
73.49757385253906
 20
-315.2178344726562
 30
198.8859100341797
 70
   192
  0
VERTEX
  5
45A
  8
0
 10
72.7043228149414
 20
-314.7611389160156
 30
204.0330810546875
 70
   192
  0
VERTEX
  5
45B
  8
0
 10
71.78987121582031
 20
-314.3126831054688
 30
209.115478515625
 70
   192
  0
VERTEX
  5
45C
  8
0
 10
70.80217742919922
 20
-313.8984985351562
 30
213.8615112304688
 70
   192
  0
VERTEX
  5
45D
  8
0
 10
69.78659057617188
 20
-313.5266723632812
 30
218.1515350341797
 70
   192
  0
VERTEX
  5
45E
  8
0
 10
68.76630401611328
 20
-313.1930236816406
 30
222.0103607177734
 70
   192
  0
VERTEX
  5
45F
  8
0
 10
67.74816131591797
 20
-312.8918151855469
 30
225.5046234130859
 70
   192
  0
VERTEX
  5
460
  8
0
 10
66.7347183227539
 20
-312.6189880371094
 30
228.6882934570312
 70
   192
  0
VERTEX
  5
461
  8
0
 10
65.7285385131836
 20
-312.3721313476562
 30
231.5992889404297
 70
   192
  0
VERTEX
  5
462
  8
0
 10
64.73426818847656
 20
-312.1500244140625
 30
234.2607421875
 70
   192
  0
VERTEX
  5
463
  8
0
 10
63.75715637207031
 20
-311.9518127441406
 30
236.68994140625
 70
   192
  0
VERTEX
  5
464
  8
0
 10
62.79803848266602
 20
-311.7755737304688
 30
238.9119262695312
 70
   192
  0
VERTEX
  5
465
  8
0
 10
61.85109329223633
 20
-311.6185302734375
 30
240.9617919921875
 70
   192
  0
VERTEX
  5
466
  8
0
 10
60.90918731689453
 20
-311.4783325195312
 30
242.8704528808594
 70
   192
  0
VERTEX
  5
467
  8
0
 10
59.97264862060547
 20
-311.3539428710938
 30
244.6495361328125
 70
   192
  0
VERTEX
  5
468
  8
0
 10
59.05043029785156
 20
-311.2453002929688
 30
246.2945861816406
 70
   192
  0
VERTEX
  5
469
  8
0
 10
58.15529251098633
 20
-311.1524353027344
 30
247.7972106933594
 70
   192
  0
VERTEX
  5
46A
  8
0
 10
57.2989616394043
 20
-311.0749206542969
 30
249.1534271240234
 70
   192
  0
VERTEX
  5
46B
  8
0
 10
56.49019241333008
 20
-311.0116882324219
 30
250.3652191162109
 70
   192
  0
VERTEX
  5
46C
  8
0
 10
55.73114776611328
 20
-310.9606628417969
 30
251.4444580078125
 70
   192
  0
VERTEX
  5
46D
  8
0
 10
55.01209259033203
 20
-310.9194030761719
 30
252.4174652099609
 70
   192
  0
VERTEX
  5
46E
  8
0
 10
54.31241226196289
 20
-310.8854370117188
 30
253.3201751708984
 70
   192
  0
VERTEX
  5
46F
  8
0
 10
53.60903930664062
 20
-310.85693359375
 30
254.1858825683594
 70
   192
  0
VERTEX
  5
470
  8
0
 10
52.88876724243164
 20
-310.8331604003906
 30
255.0311431884766
 70
   192
  0
VERTEX
  5
471
  8
0
 10
52.15401840209961
 20
-310.8142395019531
 30
255.8523559570312
 70
   192
  0
VERTEX
  5
472
  8
0
 10
51.41164398193359
 20
-310.8003234863281
 30
256.6417846679688
 70
   192
  0
VERTEX
  5
473
  8
0
 10
50.66091537475586
 20
-310.7912292480469
 30
257.4006652832031
 70
   192
  0
VERTEX
  5
474
  8
0
 10
49.8945198059082
 20
-310.7867126464844
 30
258.1359558105469
 70
   192
  0
VERTEX
  5
475
  8
0
 10
49.10962295532227
 20
-310.7860412597656
 30
258.8500061035156
 70
   192
  0
VERTEX
  5
476
  8
0
 10
48.30509185791016
 20
-310.7887878417969
 30
259.5436401367188
 70
   192
  0
VERTEX
  5
477
  8
0
 10
47.47746658325195
 20
-310.7947082519531
 30
260.2195129394531
 70
   192
  0
VERTEX
  5
478
  8
0
 10
46.60679244995117
 20
-310.8038330078125
 30
260.8921508789062
 70
   192
  0
VERTEX
  5
479
  8
0
 10
45.64954376220703
 20
-310.8167114257812
 30
261.5894775390625
 70
   192
  0
VERTEX
  5
47A
  8
0
 10
44.55004119873047
 20
-310.8346252441406
 30
262.3399963378906
 70
   192
  0
VERTEX
  5
47B
  8
0
 10
43.27429580688477
 20
-310.8591918945312
 30
263.1480102539062
 70
   192
  0
VERTEX
  5
47C
  8
0
 10
41.83058166503906
 20
-310.8909301757812
 30
263.9874572753906
 70
   192
  0
VERTEX
  5
47D
  8
0
 10
40.24618911743164
 20
-310.9295959472656
 30
264.8253784179688
 70
   192
  0
VERTEX
  5
47E
  8
0
 10
38.54084777832031
 20
-310.9748229980469
 30
265.6393737792969
 70
   192
  0
VERTEX
  5
47F
  8
0
 10
36.71200180053711
 20
-311.02734375
 30
266.4214172363281
 70
   192
  0
VERTEX
  5
480
  8
0
 10
34.72562408447266
 20
-311.0889587402344
 30
267.1756591796875
 70
   192
  0
VERTEX
  5
481
  8
0
 10
32.52759170532227
 20
-311.1619567871094
 30
267.9078063964844
 70
   192
  0
VERTEX
  5
482
  8
0
 10
30.08610916137695
 20
-311.2476806640625
 30
268.6095275878906
 70
   192
  0
VERTEX
  5
483
  8
0
 10
27.40483856201172
 20
-311.3457641601562
 30
269.2608032226562
 70
   192
  0
VERTEX
  5
484
  8
0
 10
24.48415756225586
 20
-311.4548645019531
 30
269.8469543457031
 70
   192
  0
VERTEX
  5
485
  8
0
 10
21.29440307617188
 20
-311.5726013183594
 30
270.3616333007812
 70
   192
  0
VERTEX
  5
486
  8
0
 10
17.79520988464355
 20
-311.69482421875
 30
270.798583984375
 70
   192
  0
VERTEX
  5
487
  8
0
 10
13.94484424591064
 20
-311.81494140625
 30
271.1492309570312
 70
   192
  0
VERTEX
  5
488
  8
0
 10
9.713741302490234
 20
-311.922607421875
 30
271.4043273925781
 70
   192
  0
VERTEX
  5
489
  8
0
 10
5.085226058959961
 20
-312.0024719238281
 30
271.5577392578125
 70
   192
  0
VERTEX
  5
48A
  8
0
 10
-0.0001185354194604
 20
-312.0359497070312
 30
271.6079406738281
 70
   192
  0
VERTEX
  5
48B
  8
0
 10
-0.0004760390147567
 20
-314.4903259277344
 30
270.7532043457031
 70
   192
  0
VERTEX
  5
48C
  8
0
 10
-0.0004739983996842
 20
-316.7612915039062
 30
269.486328125
 70
   192
  0
VERTEX
  5
48D
  8
0
 10
-0.0004709063505288
 20
-318.7794189453125
 30
267.8463745117188
 70
   192
  0
VERTEX
  5
48E
  8
0
 10
-0.0004668053879868
 20
-320.4841003417969
 30
265.8825378417969
 70
   192
  0
VERTEX
  5
48F
  8
0
 10
-0.0004617678932846
 20
-321.8240966796875
 30
263.6538391113281
 70
   192
  0
VERTEX
  5
490
  8
0
 10
11.38312911987305
 20
-321.3557739257812
 30
263.9588012695312
 70
   192
  0
VERTEX
  5
491
  8
0
 10
11.49089622497559
 20
-319.4019165039062
 30
266.732177734375
 70
   192
  0
VERTEX
  5
492
  8
0
 10
11.55454254150391
 20
-316.8379821777344
 30
269.0228576660156
 70
   192
  0
VERTEX
  5
493
  8
0
 10
11.5691614151001
 20
-313.8615112304688
 30
270.654296875
 70
   192
  0
VERTEX
  5
494
  8
0
 10
29.11478996276855
 20
-320.6835021972656
 30
261.3776245117188
 70
   192
  0
VERTEX
  5
495
  8
0
 10
29.77639579772949
 20
-318.7034606933594
 30
264.0537109375
 70
   192
  0
VERTEX
  5
496
  8
0
 10
30.28633880615234
 20
-316.1182861328125
 30
266.2629699707031
 70
   192
  0
VERTEX
  5
497
  8
0
 10
30.60531806945801
 20
-313.1271362304688
 30
267.8351440429688
 70
   192
  0
VERTEX
  5
498
  8
0
 10
39.20320892333984
 20
-320.4260864257812
 30
257.2487487792969
 70
   192
  0
VERTEX
  5
499
  8
0
 10
40.62026596069336
 20
-318.4198913574219
 30
259.5909729003906
 70
   192
  0
VERTEX
  5
49A
  8
0
 10
41.78330993652344
 20
-315.8125915527344
 30
261.50732421875
 70
   192
  0
VERTEX
  5
49B
  8
0
 10
42.60272216796875
 20
-312.8051452636719
 30
262.8501281738281
 70
   192
  0
VERTEX
  5
49C
  8
0
 10
46.1911735534668
 20
-320.6703186035156
 30
251.6050109863281
 70
   192
  0
VERTEX
  5
49D
  8
0
 10
48.30135726928711
 20
-318.6776123046875
 30
253.3642272949219
 70
   192
  0
VERTEX
  5
49E
  8
0
 10
50.07087326049805
 20
-316.0831604003906
 30
254.7642517089844
 70
   192
  0
VERTEX
  5
49F
  8
0
 10
51.36335754394531
 20
-313.0867919921875
 30
255.6971893310547
 70
   192
  0
VERTEX
  5
4A0
  8
0
 10
52.01161956787109
 20
-321.4036865234375
 30
243.6022338867188
 70
   192
  0
VERTEX
  5
4A1
  8
0
 10
54.50020599365234
 20
-319.441650390625
 30
244.8172302246094
 70
   192
  0
VERTEX
  5
4A2
  8
0
 10
56.59315490722656
 20
-316.874755859375
 30
245.7409820556641
 70
   192
  0
VERTEX
  5
4A3
  8
0
 10
58.12920379638672
 20
-313.9007568359375
 30
246.3023376464844
 70
   192
  0
VERTEX
  5
4A4
  8
0
 10
57.74442672729492
 20
-322.6676940917969
 30
231.3911743164062
 70
   192
  0
VERTEX
  5
4A5
  8
0
 10
60.41608428955078
 20
-320.7239990234375
 30
232.1678771972656
 70
   192
  0
VERTEX
  5
4A6
  8
0
 10
62.65483093261719
 20
-318.1730346679688
 30
232.7188110351562
 70
   192
  0
VERTEX
  5
4A7
  8
0
 10
64.28813934326172
 20
-315.2112731933594
 30
233.0015258789062
 70
   192
  0
VERTEX
  5
4A8
  8
0
 10
63.00502777099609
 20
-324.3984069824219
 30
213.8945465087891
 70
   192
  0
VERTEX
  5
4A9
  8
0
 10
65.7554702758789
 20
-322.4559936523438
 30
214.3205413818359
 70
   192
  0
VERTEX
  5
4AA
  8
0
 10
68.04681396484375
 20
-319.9056396484375
 30
214.5828094482422
 70
   192
  0
VERTEX
  5
4AB
  8
0
 10
69.70250701904297
 20
-316.94384765625
 30
214.6611175537109
 70
   192
  0
VERTEX
  5
4AC
  8
0
 10
66.65668487548828
 20
-326.3495483398438
 30
192.6793365478516
 70
   192
  0
VERTEX
  5
4AD
  8
0
 10
69.43367004394531
 20
-324.4040222167969
 30
192.82763671875
 70
   192
  0
VERTEX
  5
4AE
  8
0
 10
71.7359848022461
 20
-321.8504333496094
 30
192.8653869628906
 70
   192
  0
VERTEX
  5
4AF
  8
0
 10
73.38622283935547
 20
-318.8856201171875
 30
192.7896881103516
 70
   192
  0
VERTEX
  5
4B0
  8
0
 10
68.78971099853516
 20
-328.2344360351562
 30
168.9771881103516
 70
   192
  0
VERTEX
  5
4B1
  8
0
 10
71.56271362304688
 20
-326.2783203125
 30
169.0266571044922
 70
   192
  0
VERTEX
  5
4B2
  8
0
 10
73.85372161865234
 20
-323.7145385742188
 30
169.0008087158203
 70
   192
  0
VERTEX
  5
4B3
  8
0
 10
75.48619842529297
 20
-320.7406616210938
 30
168.9016418457031
 70
   192
  0
VERTEX
  5
4B4
  8
0
 10
70.35126495361328
 20
-329.6310119628906
 30
144.0537872314453
 70
   192
  0
VERTEX
  5
4B5
  8
0
 10
73.11328887939453
 20
-327.6595458984375
 30
144.1076812744141
 70
   192
  0
VERTEX
  5
4B6
  8
0
 10
75.3886947631836
 20
-325.0818176269531
 30
144.1082763671875
 70
   192
  0
VERTEX
  5
4B7
  8
0
 10
77.00213623046875
 20
-322.0963745117188
 30
144.0555419921875
 70
   192
  0
VERTEX
  5
4B8
  8
0
 10
71.57572174072266
 20
-330.53662109375
 30
118.0534133911133
 70
   192
  0
VERTEX
  5
4B9
  8
0
 10
74.3289566040039
 20
-328.552734375
 30
118.1015090942383
 70
   192
  0
VERTEX
  5
4BA
  8
0
 10
76.59197235107422
 20
-325.9641418457031
 30
118.1147003173828
 70
   192
  0
VERTEX
  5
4BB
  8
0
 10
78.19038391113281
 20
-322.9702453613281
 30
118.0919570922852
 70
   192
  0
VERTEX
  5
4BC
  8
0
 10
72.42950439453125
 20
-331.0754089355469
 30
91.11590576171875
 70
   192
  0
VERTEX
  5
4BD
  8
0
 10
75.1764144897461
 20
-329.0824890136719
 30
91.14966583251953
 70
   192
  0
VERTEX
  5
4BE
  8
0
 10
77.43061828613281
 20
-326.4861755371094
 30
91.16267395019531
 70
   192
  0
VERTEX
  5
4BF
  8
0
 10
79.01841735839844
 20
-323.4866027832031
 30
91.15391540527344
 70
   192
  0
VERTEX
  5
4C0
  8
0
 10
72.95503997802734
 20
-331.3572082519531
 30
63.38788986206055
 70
   192
  0
VERTEX
  5
4C1
  8
0
 10
75.69778442382812
 20
-329.3583984375
 30
63.41123199462891
 70
   192
  0
VERTEX
  5
4C2
  8
0
 10
77.94631958007812
 20
-326.7572021484375
 30
63.42398071289062
 70
   192
  0
VERTEX
  5
4C3
  8
0
 10
79.52738952636719
 20
-323.7540588378906
 30
63.42514801025391
 70
   192
  0
VERTEX
  5
4C4
  8
0
 10
73.26615905761719
 20
-331.4424743652344
 30
35.4859619140625
 70
   192
  0
VERTEX
  5
4C5
  8
0
 10
76.00623321533203
 20
-329.4400024414062
 30
35.50823593139648
 70
   192
  0
VERTEX
  5
4C6
  8
0
 10
78.25123596191406
 20
-326.8357849121094
 30
35.52588653564453
 70
   192
  0
VERTEX
  5
4C7
  8
0
 10
79.82817077636719
 20
-323.8305053710938
 30
35.53755187988281
 70
   192
  0
VERTEX
  5
4C8
  8
0
 10
73.5185775756836
 20
-331.3976135253906
 30
7.056935787200928
 70
   192
  0
VERTEX
  5
4C9
  8
0
 10
76.25633239746094
 20
-329.39208984375
 30
7.08724308013916
 70
   192
  0
VERTEX
  5
4CA
  8
0
 10
78.4983139038086
 20
-326.7853698730469
 30
7.114689350128174
 70
   192
  0
VERTEX
  5
4CB
  8
0
 10
80.07177734375
 20
-323.7783508300781
 30
7.137160301208496
 70
   192
  0
VERTEX
  5
4CC
  8
0
 10
0.0
 20
0.0
 30
0.0
 70
   128
 71
     1
 72
     2
 73
   182
  0
VERTEX
  5
4CD
  8
0
 10
0.0
 20
0.0
 30
0.0
 70
   128
 71
   182
 72
     2
 73
     3
  0
VERTEX
  5
4CE
  8
0
 10
0.0
 20
0.0
 30
0.0
 70
   128
 71
   183
 72
     3
 73
     4
  0
VERTEX
  5
4CF
  8
0
 10
0.0
 20
0.0
 30
0.0
 70
   128
 71
     5
 72
   183
 73
     4
  0
VERTEX
  5
4D0
  8
0
 10
0.0
 20
0.0
 30
0.0
 70
   128
 71
     5
 72
     6
 73
   183
  0
VERTEX
  5
4D1
  8
0
 10
0.0
 20
0.0
 30
0.0
 70
   128
 71
   183
 72
     6
 73
   187
  0
VERTEX
  5
4D2
  8
0
 10
0.0
 20
0.0
 30
0.0
 70
   128
 71
   188
 72
   187
 73
   191
 74
   192
  0
VERTEX
  5
4D3
  8
0
 10
0.0
 20
0.0
 30
0.0
 70
   128
 71
   192
 72
   193
 73
   189
 74
   188
  0
VERTEX
  5
4D4
  8
0
 10
0.0
 20
0.0
 30
0.0
 70
   128
 71
   196
 72
   192
 73
   191
 74
   195
  0
VERTEX
  5
4D5
  8
0
 10
0.0
 20
0.0
 30
0.0
 70
   128
 71
   195
 72
   199
 73
   200
 74
   196
  0
VERTEX
  5
4D6
  8
0
 10
0.0
 20
0.0
 30
0.0
 70
   128
 71
    29
 72
   195
 73
    28
  0
VERTEX
  5
4D7
  8
0
 10
0.0
 20
0.0
 30
0.0
 70
   128
 71
    29
 72
   199
 73
   195
  0
VERTEX
  5
4D8
  8
0
 10
0.0
 20
0.0
 30
0.0
 70
   128
 71
    29
 72
    30
 73
   199
  0
VERTEX
  5
4D9
  8
0
 10
0.0
 20
0.0
 30
0.0
 70
   128
 71
   199
 72
    30
 73
    31
  0
VERTEX
  5
4DA
  8
0
 10
0.0
 20
0.0
 30
0.0
 70
   128
 71
    32
 72
   199
 73
    31
  0
VERTEX
  5
4DB
  8
0
 10
0.0
 20
0.0
 30
0.0
 70
   128
 71
    32
 72
    33
 73
   199
  0
VERTEX
  5
4DC
  8
0
 10
0.0
 20
0.0
 30
0.0
 70
   128
 71
   199
 72
    33
 73
    34
  0
VERTEX
  5
4DD
  8
0
 10
0.0
 20
0.0
 30
0.0
 70
   128
 71
    35
 72
   199
 73
    34
  0
VERTEX
  5
4DE
  8
0
 10
0.0
 20
0.0
 30
0.0
 70
   128
 71
    35
 72
    36
 73
   199
  0
VERTEX
  5
4DF
  8
0
 10
0.0
 20
0.0
 30
0.0
 70
   128
 71
   199
 72
    36
 73
    37
  0
VERTEX
  5
4E0
  8
0
 10
0.0
 20
0.0
 30
0.0
 70
   128
 71
    38
 72
   199
 73
    37
  0
VERTEX
  5
4E1
  8
0
 10
0.0
 20
0.0
 30
0.0
 70
   128
 71
    38
 72
   203
 73
   199
  0
VERTEX
  5
4E2
  8
0
 10
0.0
 20
0.0
 30
0.0
 70
   128
 71
    38
 72
    39
 73
   203
  0
VERTEX
  5
4E3
  8
0
 10
0.0
 20
0.0
 30
0.0
 70
   128
 71
   203
 72
    39
 73
    40
  0
VERTEX
  5
4E4
  8
0
 10
0.0
 20
0.0
 30
0.0
 70
   128
 71
    41
 72
   203
 73
    40
  0
VERTEX
  5
4E5
  8
0
 10
0.0
 20
0.0
 30
0.0
 70
   128
 71
    41
 72
    42
 73
   203
  0
VERTEX
  5
4E6
  8
0
 10
0.0
 20
0.0
 30
0.0
 70
   128
 71
   203
 72
    42
 73
    43
  0
VERTEX
  5
4E7
  8
0
 10
0.0
 20
0.0
 30
0.0
 70
   128
 71
    44
 72
   203
 73
    43
  0
VERTEX
  5
4E8
  8
0
 10
0.0
 20
0.0
 30
0.0
 70
   128
 71
    44
 72
   207
 73
   203
  0
VERTEX
  5
4E9
  8
0
 10
0.0
 20
0.0
 30
0.0
 70
   128
 71
    44
 72
    45
 73
   207
  0
VERTEX
  5
4EA
  8
0
 10
0.0
 20
0.0
 30
0.0
 70
   128
 71
   207
 72
    45
 73
    46
  0
VERTEX
  5
4EB
  8
0
 10
0.0
 20
0.0
 30
0.0
 70
   128
 71
    47
 72
   207
 73
    46
  0
VERTEX
  5
4EC
  8
0
 10
0.0
 20
0.0
 30
0.0
 70
   128
 71
    47
 72
    48
 73
   207
  0
VERTEX
  5
4ED
  8
0
 10
0.0
 20
0.0
 30
0.0
 70
   128
 71
   207
 72
    48
 73
    49
  0
VERTEX
  5
4EE
  8
0
 10
0.0
 20
0.0
 30
0.0
 70
   128
 71
   211
 72
    49
 73
    50
  0
VERTEX
  5
4EF
  8
0
 10
0.0
 20
0.0
 30
0.0
 70
   128
 71
    51
 72
   211
 73
    50
  0
VERTEX
  5
4F0
  8
0
 10
0.0
 20
0.0
 30
0.0
 70
   128
 71
    51
 72
    52
 73
   211
  0
VERTEX
  5
4F1
  8
0
 10
0.0
 20
0.0
 30
0.0
 70
   128
 71
   211
 72
    52
 73
    53
  0
VERTEX
  5
4F2
  8
0
 10
0.0
 20
0.0
 30
0.0
 70
   128
 71
    54
 72
   211
 73
    53
  0
VERTEX
  5
4F3
  8
0
 10
0.0
 20
0.0
 30
0.0
 70
   128
 71
    54
 72
   215
 73
   211
  0
VERTEX
  5
4F4
  8
0
 10
0.0
 20
0.0
 30
0.0
 70
   128
 71
    54
 72
    55
 73
   215
  0
VERTEX
  5
4F5
  8
0
 10
0.0
 20
0.0
 30
0.0
 70
   128
 71
   215
 72
    55
 73
    56
  0
VERTEX
  5
4F6
  8
0
 10
0.0
 20
0.0
 30
0.0
 70
   128
 71
    57
 72
   215
 73
    56
  0
VERTEX
  5
4F7
  8
0
 10
0.0
 20
0.0
 30
0.0
 70
   128
 71
    57
 72
    58
 73
   215
  0
VERTEX
  5
4F8
  8
0
 10
0.0
 20
0.0
 30
0.0
 70
   128
 71
   215
 72
    58
 73
    59
  0
VERTEX
  5
4F9
  8
0
 10
0.0
 20
0.0
 30
0.0
 70
   128
 71
    60
 72
   215
 73
    59
  0
VERTEX
  5
4FA
  8
0
 10
0.0
 20
0.0
 30
0.0
 70
   128
 71
    60
 72
    61
 73
   215
  0
VERTEX
  5
4FB
  8
0
 10
0.0
 20
0.0
 30
0.0
 70
   128
 71
   215
 72
    61
 73
    62
  0
VERTEX
  5
4FC
  8
0
 10
0.0
 20
0.0
 30
0.0
 70
   128
 71
   219
 72
    62
 73
    63
  0
VERTEX
  5
4FD
  8
0
 10
0.0
 20
0.0
 30
0.0
 70
   128
 71
    64
 72
   219
 73
    63
  0
VERTEX
  5
4FE
  8
0
 10
0.0
 20
0.0
 30
0.0
 70
   128
 71
    64
 72
    65
 73
   219
  0
VERTEX
  5
4FF
  8
0
 10
0.0
 20
0.0
 30
0.0
 70
   128
 71
   219
 72
    65
 73
    66
  0
VERTEX
  5
500
  8
0
 10
0.0
 20
0.0
 30
0.0
 70
   128
 71
    67
 72
   219
 73
    66
  0
VERTEX
  5
501
  8
0
 10
0.0
 20
0.0
 30
0.0
 70
   128
 71
    67
 72
    68
 73
   219
  0
VERTEX
  5
502
  8
0
 10
0.0
 20
0.0
 30
0.0
 70
   128
 71
   219
 72
    68
 73
    69
  0
VERTEX
  5
503
  8
0
 10
0.0
 20
0.0
 30
0.0
 70
   128
 71
    70
 72
   219
 73
    69
  0
VERTEX
  5
504
  8
0
 10
0.0
 20
0.0
 30
0.0
 70
   128
 71
    70
 72
   223
 73
   219
  0
VERTEX
  5
505
  8
0
 10
0.0
 20
0.0
 30
0.0
 70
   128
 71
    70
 72
    71
 73
   223
  0
VERTEX
  5
506
  8
0
 10
0.0
 20
0.0
 30
0.0
 70
   128
 71
   223
 72
    71
 73
    72
  0
VERTEX
  5
507
  8
0
 10
0.0
 20
0.0
 30
0.0
 70
   128
 71
    73
 72
   223
 73
    72
  0
VERTEX
  5
508
  8
0
 10
0.0
 20
0.0
 30
0.0
 70
   128
 71
    73
 72
    74
 73
   223
  0
VERTEX
  5
509
  8
0
 10
0.0
 20
0.0
 30
0.0
 70
   128
 71
   223
 72
    74
 73
    75
  0
VERTEX
  5
50A
  8
0
 10
0.0
 20
0.0
 30
0.0
 70
   128
 71
   227
 72
    75
 73
    76
  0
VERTEX
  5
50B
  8
0
 10
0.0
 20
0.0
 30
0.0
 70
   128
 71
    77
 72
   227
 73
    76
  0
VERTEX
  5
50C
  8
0
 10
0.0
 20
0.0
 30
0.0
 70
   128
 71
    77
 72
    78
 73
   227
  0
VERTEX
  5
50D
  8
0
 10
0.0
 20
0.0
 30
0.0
 70
   128
 71
   227
 72
    78
 73
   231
  0
VERTEX
  5
50E
  8
0
 10
0.0
 20
0.0
 30
0.0
 70
   128
 71
   232
 72
   231
 73
   235
 74
   236
  0
VERTEX
  5
50F
  8
0
 10
0.0
 20
0.0
 30
0.0
 70
   128
 71
   236
 72
   237
 73
   233
 74
   232
  0
VERTEX
  5
510
  8
0
 10
0.0
 20
0.0
 30
0.0
 70
   128
 71
   240
 72
   236
 73
   235
 74
   239
  0
VERTEX
  5
511
  8
0
 10
0.0
 20
0.0
 30
0.0
 70
   128
 71
   239
 72
    88
 73
   240
  0
VERTEX
  5
512
  8
0
 10
0.0
 20
0.0
 30
0.0
 70
   128
 71
   239
 72
    87
 73
    88
  0
VERTEX
  5
513
  8
0
 10
0.0
 20
0.0
 30
0.0
 70
   128
 71
   239
 72
    86
 73
    87
  0
VERTEX
  5
514
  8
0
 10
0.0
 20
0.0
 30
0.0
 70
   128
 71
   239
 72
    84
 73
    86
  0
VERTEX
  5
515
  8
0
 10
0.0
 20
0.0
 30
0.0
 70
   128
 71
   239
 72
    83
 73
    84
  0
VERTEX
  5
516
  8
0
 10
0.0
 20
0.0
 30
0.0
 70
   128
 71
   239
 72
   235
 73
    83
  0
VERTEX
  5
517
  8
0
 10
0.0
 20
0.0
 30
0.0
 70
   128
 71
    83
 72
   235
 73
    82
  0
VERTEX
  5
518
  8
0
 10
0.0
 20
0.0
 30
0.0
 70
   128
 71
    82
 72
   235
 73
    81
  0
VERTEX
  5
519
  8
0
 10
0.0
 20
0.0
 30
0.0
 70
   128
 71
    81
 72
   235
 73
   231
  0
VERTEX
  5
51A
  8
0
 10
0.0
 20
0.0
 30
0.0
 70
   128
 71
    80
 72
   231
 73
    79
  0
VERTEX
  5
51B
  8
0
 10
0.0
 20
0.0
 30
0.0
 70
   128
 71
    80
 72
    81
 73
   231
  0
VERTEX
  5
51C
  8
0
 10
0.0
 20
0.0
 30
0.0
 70
   128
 71
     6
 72
     7
 73
   187
  0
VERTEX
  5
51D
  8
0
 10
0.0
 20
0.0
 30
0.0
 70
   128
 71
   187
 72
     7
 73
     8
  0
VERTEX
  5
51E
  8
0
 10
0.0
 20
0.0
 30
0.0
 70
   128
 71
     9
 72
   187
 73
     8
  0
VERTEX
  5
51F
  8
0
 10
0.0
 20
0.0
 30
0.0
 70
   128
 71
     9
 72
    10
 73
   187
  0
VERTEX
  5
520
  8
0
 10
0.0
 20
0.0
 30
0.0
 70
   128
 71
   187
 72
    10
 73
    11
  0
VERTEX
  5
521
  8
0
 10
0.0
 20
0.0
 30
0.0
 70
   128
 71
   191
 72
    11
 73
    12
  0
VERTEX
  5
522
  8
0
 10
0.0
 20
0.0
 30
0.0
 70
   128
 71
    13
 72
   191
 73
    12
  0
VERTEX
  5
523
  8
0
 10
0.0
 20
0.0
 30
0.0
 70
   128
 71
    13
 72
    14
 73
   191
  0
VERTEX
  5
524
  8
0
 10
0.0
 20
0.0
 30
0.0
 70
   128
 71
   191
 72
    14
 73
    15
  0
VERTEX
  5
525
  8
0
 10
0.0
 20
0.0
 30
0.0
 70
   128
 71
    16
 72
   191
 73
    15
  0
VERTEX
  5
526
  8
0
 10
0.0
 20
0.0
 30
0.0
 70
   128
 71
    16
 72
    17
 73
   191
  0
VERTEX
  5
527
  8
0
 10
0.0
 20
0.0
 30
0.0
 70
   128
 71
   191
 72
    17
 73
    18
  0
VERTEX
  5
528
  8
0
 10
0.0
 20
0.0
 30
0.0
 70
   128
 71
   195
 72
    18
 73
    19
  0
VERTEX
  5
529
  8
0
 10
0.0
 20
0.0
 30
0.0
 70
   128
 71
    20
 72
   195
 73
    19
  0
VERTEX
  5
52A
  8
0
 10
0.0
 20
0.0
 30
0.0
 70
   128
 71
    20
 72
    21
 73
   195
  0
VERTEX
  5
52B
  8
0
 10
0.0
 20
0.0
 30
0.0
 70
   128
 71
   195
 72
    21
 73
    22
  0
VERTEX
  5
52C
  8
0
 10
0.0
 20
0.0
 30
0.0
 70
   128
 71
    23
 72
   195
 73
    22
  0
VERTEX
  5
52D
  8
0
 10
0.0
 20
0.0
 30
0.0
 70
   128
 71
    23
 72
    24
 73
   195
  0
VERTEX
  5
52E
  8
0
 10
0.0
 20
0.0
 30
0.0
 70
   128
 71
   195
 72
    24
 73
    25
  0
VERTEX
  5
52F
  8
0
 10
0.0
 20
0.0
 30
0.0
 70
   128
 71
    26
 72
   195
 73
    25
  0
VERTEX
  5
530
  8
0
 10
0.0
 20
0.0
 30
0.0
 70
   128
 71
    26
 72
    27
 73
   195
  0
VERTEX
  5
531
  8
0
 10
0.0
 20
0.0
 30
0.0
 70
   128
 71
   195
 72
    27
 73
    28
  0
VERTEX
  5
532
  8
0
 10
0.0
 20
0.0
 30
0.0
 70
   128
 71
    78
 72
    79
 73
   231
  0
VERTEX
  5
533
  8
0
 10
0.0
 20
0.0
 30
0.0
 70
   128
 71
    84
 72
    85
 73
    86
  0
VERTEX
  5
534
  8
0
 10
0.0
 20
0.0
 30
0.0
 70
   128
 71
    88
 72
    89
 73
   240
  0
VERTEX
  5
535
  8
0
 10
0.0
 20
0.0
 30
0.0
 70
   128
 71
   240
 72
    89
 73
   241
  0
VERTEX
  5
536
  8
0
 10
0.0
 20
0.0
 30
0.0
 70
   128
 71
   237
 72
   241
 73
   242
 74
   238
  0
VERTEX
  5
537
  8
0
 10
0.0
 20
0.0
 30
0.0
 70
   128
 71
   238
 72
   234
 73
   233
 74
   237
  0
VERTEX
  5
538
  8
0
 10
0.0
 20
0.0
 30
0.0
 70
   128
 71
    97
 72
   238
 73
    96
  0
VERTEX
  5
539
  8
0
 10
0.0
 20
0.0
 30
0.0
 70
   128
 71
    97
 72
   234
 73
   238
  0
VERTEX
  5
53A
  8
0
 10
0.0
 20
0.0
 30
0.0
 70
   128
 71
    97
 72
    98
 73
   234
  0
VERTEX
  5
53B
  8
0
 10
0.0
 20
0.0
 30
0.0
 70
   128
 71
   234
 72
    98
 73
    99
  0
VERTEX
  5
53C
  8
0
 10
0.0
 20
0.0
 30
0.0
 70
   128
 71
   100
 72
   234
 73
    99
  0
VERTEX
  5
53D
  8
0
 10
0.0
 20
0.0
 30
0.0
 70
   128
 71
   100
 72
   230
 73
   234
  0
VERTEX
  5
53E
  8
0
 10
0.0
 20
0.0
 30
0.0
 70
   128
 71
   100
 72
   101
 73
   230
  0
VERTEX
  5
53F
  8
0
 10
0.0
 20
0.0
 30
0.0
 70
   128
 71
   230
 72
   101
 73
   102
  0
VERTEX
  5
540
  8
0
 10
0.0
 20
0.0
 30
0.0
 70
   128
 71
   103
 72
   230
 73
   102
  0
VERTEX
  5
541
  8
0
 10
0.0
 20
0.0
 30
0.0
 70
   128
 71
   103
 72
   226
 73
   230
  0
VERTEX
  5
542
  8
0
 10
0.0
 20
0.0
 30
0.0
 70
   128
 71
   103
 72
   104
 73
   226
  0
VERTEX
  5
543
  8
0
 10
0.0
 20
0.0
 30
0.0
 70
   128
 71
   226
 72
   104
 73
   105
  0
VERTEX
  5
544
  8
0
 10
0.0
 20
0.0
 30
0.0
 70
   128
 71
   106
 72
   226
 73
   105
  0
VERTEX
  5
545
  8
0
 10
0.0
 20
0.0
 30
0.0
 70
   128
 71
   106
 72
   107
 73
   226
  0
VERTEX
  5
546
  8
0
 10
0.0
 20
0.0
 30
0.0
 70
   128
 71
   226
 72
   107
 73
   108
  0
VERTEX
  5
547
  8
0
 10
0.0
 20
0.0
 30
0.0
 70
   128
 71
   222
 72
   108
 73
   109
  0
VERTEX
  5
548
  8
0
 10
0.0
 20
0.0
 30
0.0
 70
   128
 71
   110
 72
   222
 73
   109
  0
VERTEX
  5
549
  8
0
 10
0.0
 20
0.0
 30
0.0
 70
   128
 71
   110
 72
   111
 73
   222
  0
VERTEX
  5
54A
  8
0
 10
0.0
 20
0.0
 30
0.0
 70
   128
 71
   222
 72
   111
 73
   112
  0
VERTEX
  5
54B
  8
0
 10
0.0
 20
0.0
 30
0.0
 70
   128
 71
   113
 72
   222
 73
   112
  0
VERTEX
  5
54C
  8
0
 10
0.0
 20
0.0
 30
0.0
 70
   128
 71
   113
 72
   114
 73
   222
  0
VERTEX
  5
54D
  8
0
 10
0.0
 20
0.0
 30
0.0
 70
   128
 71
   222
 72
   114
 73
   115
  0
VERTEX
  5
54E
  8
0
 10
0.0
 20
0.0
 30
0.0
 70
   128
 71
   116
 72
   222
 73
   115
  0
VERTEX
  5
54F
  8
0
 10
0.0
 20
0.0
 30
0.0
 70
   128
 71
   116
 72
   218
 73
   222
  0
VERTEX
  5
550
  8
0
 10
0.0
 20
0.0
 30
0.0
 70
   128
 71
   116
 72
   117
 73
   218
  0
VERTEX
  5
551
  8
0
 10
0.0
 20
0.0
 30
0.0
 70
   128
 71
   218
 72
   117
 73
   118
  0
VERTEX
  5
552
  8
0
 10
0.0
 20
0.0
 30
0.0
 70
   128
 71
   119
 72
   218
 73
   118
  0
VERTEX
  5
553
  8
0
 10
0.0
 20
0.0
 30
0.0
 70
   128
 71
   119
 72
   120
 73
   218
  0
VERTEX
  5
554
  8
0
 10
0.0
 20
0.0
 30
0.0
 70
   128
 71
   218
 72
   120
 73
   121
  0
VERTEX
  5
555
  8
0
 10
0.0
 20
0.0
 30
0.0
 70
   128
 71
   122
 72
   218
 73
   121
  0
VERTEX
  5
556
  8
0
 10
0.0
 20
0.0
 30
0.0
 70
   128
 71
   122
 72
   123
 73
   218
  0
VERTEX
  5
557
  8
0
 10
0.0
 20
0.0
 30
0.0
 70
   128
 71
   218
 72
   123
 73
   124
  0
VERTEX
  5
558
  8
0
 10
0.0
 20
0.0
 30
0.0
 70
   128
 71
   214
 72
   124
 73
   125
  0
VERTEX
  5
559
  8
0
 10
0.0
 20
0.0
 30
0.0
 70
   128
 71
   126
 72
   214
 73
   125
  0
VERTEX
  5
55A
  8
0
 10
0.0
 20
0.0
 30
0.0
 70
   128
 71
   126
 72
   127
 73
   214
  0
VERTEX
  5
55B
  8
0
 10
0.0
 20
0.0
 30
0.0
 70
   128
 71
   214
 72
   127
 73
   128
  0
VERTEX
  5
55C
  8
0
 10
0.0
 20
0.0
 30
0.0
 70
   128
 71
   129
 72
   214
 73
   128
  0
VERTEX
  5
55D
  8
0
 10
0.0
 20
0.0
 30
0.0
 70
   128
 71
   129
 72
   210
 73
   214
  0
VERTEX
  5
55E
  8
0
 10
0.0
 20
0.0
 30
0.0
 70
   128
 71
   129
 72
   130
 73
   210
  0
VERTEX
  5
55F
  8
0
 10
0.0
 20
0.0
 30
0.0
 70
   128
 71
   210
 72
   130
 73
   131
  0
VERTEX
  5
560
  8
0
 10
0.0
 20
0.0
 30
0.0
 70
   128
 71
   132
 72
   210
 73
   131
  0
VERTEX
  5
561
  8
0
 10
0.0
 20
0.0
 30
0.0
 70
   128
 71
   132
 72
   133
 73
   210
  0
VERTEX
  5
562
  8
0
 10
0.0
 20
0.0
 30
0.0
 70
   128
 71
   210
 72
   133
 73
   134
  0
VERTEX
  5
563
  8
0
 10
0.0
 20
0.0
 30
0.0
 70
   128
 71
   206
 72
   134
 73
   135
  0
VERTEX
  5
564
  8
0
 10
0.0
 20
0.0
 30
0.0
 70
   128
 71
   136
 72
   206
 73
   135
  0
VERTEX
  5
565
  8
0
 10
0.0
 20
0.0
 30
0.0
 70
   128
 71
   136
 72
   137
 73
   206
  0
VERTEX
  5
566
  8
0
 10
0.0
 20
0.0
 30
0.0
 70
   128
 71
   206
 72
   137
 73
   138
  0
VERTEX
  5
567
  8
0
 10
0.0
 20
0.0
 30
0.0
 70
   128
 71
   139
 72
   206
 73
   138
  0
VERTEX
  5
568
  8
0
 10
0.0
 20
0.0
 30
0.0
 70
   128
 71
   139
 72
   140
 73
   206
  0
VERTEX
  5
569
  8
0
 10
0.0
 20
0.0
 30
0.0
 70
   128
 71
   206
 72
   140
 73
   141
  0
VERTEX
  5
56A
  8
0
 10
0.0
 20
0.0
 30
0.0
 70
   128
 71
   202
 72
   141
 73
   142
  0
VERTEX
  5
56B
  8
0
 10
0.0
 20
0.0
 30
0.0
 70
   128
 71
   143
 72
   202
 73
   142
  0
VERTEX
  5
56C
  8
0
 10
0.0
 20
0.0
 30
0.0
 70
   128
 71
   143
 72
   144
 73
   202
  0
VERTEX
  5
56D
  8
0
 10
0.0
 20
0.0
 30
0.0
 70
   128
 71
   202
 72
   144
 73
   145
  0
VERTEX
  5
56E
  8
0
 10
0.0
 20
0.0
 30
0.0
 70
   128
 71
   146
 72
   202
 73
   145
  0
VERTEX
  5
56F
  8
0
 10
0.0
 20
0.0
 30
0.0
 70
   128
 71
   146
 72
   147
 73
   202
  0
VERTEX
  5
570
  8
0
 10
0.0
 20
0.0
 30
0.0
 70
   128
 71
   202
 72
   147
 73
   148
  0
VERTEX
  5
571
  8
0
 10
0.0
 20
0.0
 30
0.0
 70
   128
 71
   149
 72
   202
 73
   148
  0
VERTEX
  5
572
  8
0
 10
0.0
 20
0.0
 30
0.0
 70
   128
 71
   149
 72
   150
 73
   202
  0
VERTEX
  5
573
  8
0
 10
0.0
 20
0.0
 30
0.0
 70
   128
 71
   202
 72
   150
 73
   151
  0
VERTEX
  5
574
  8
0
 10
0.0
 20
0.0
 30
0.0
 70
   128
 71
   152
 72
   202
 73
   151
  0
VERTEX
  5
575
  8
0
 10
0.0
 20
0.0
 30
0.0
 70
   128
 71
   152
 72
   198
 73
   202
  0
VERTEX
  5
576
  8
0
 10
0.0
 20
0.0
 30
0.0
 70
   128
 71
   152
 72
   153
 73
   198
  0
VERTEX
  5
577
  8
0
 10
0.0
 20
0.0
 30
0.0
 70
   128
 71
   198
 72
   153
 73
   154
  0
VERTEX
  5
578
  8
0
 10
0.0
 20
0.0
 30
0.0
 70
   128
 71
   155
 72
   198
 73
   154
  0
VERTEX
  5
579
  8
0
 10
0.0
 20
0.0
 30
0.0
 70
   128
 71
   155
 72
   156
 73
   198
  0
VERTEX
  5
57A
  8
0
 10
0.0
 20
0.0
 30
0.0
 70
   128
 71
   198
 72
   156
 73
   157
  0
VERTEX
  5
57B
  8
0
 10
0.0
 20
0.0
 30
0.0
 70
   128
 71
   158
 72
   198
 73
   157
  0
VERTEX
  5
57C
  8
0
 10
0.0
 20
0.0
 30
0.0
 70
   128
 71
   158
 72
   159
 73
   198
  0
VERTEX
  5
57D
  8
0
 10
0.0
 20
0.0
 30
0.0
 70
   128
 71
   198
 72
   159
 73
   160
  0
VERTEX
  5
57E
  8
0
 10
0.0
 20
0.0
 30
0.0
 70
   128
 71
   161
 72
   198
 73
   160
  0
VERTEX
  5
57F
  8
0
 10
0.0
 20
0.0
 30
0.0
 70
   128
 71
   161
 72
   194
 73
   198
  0
VERTEX
  5
580
  8
0
 10
0.0
 20
0.0
 30
0.0
 70
   128
 71
   161
 72
   162
 73
   194
  0
VERTEX
  5
581
  8
0
 10
0.0
 20
0.0
 30
0.0
 70
   128
 71
   194
 72
   162
 73
   163
  0
VERTEX
  5
582
  8
0
 10
0.0
 20
0.0
 30
0.0
 70
   128
 71
   164
 72
   194
 73
   163
  0
VERTEX
  5
583
  8
0
 10
0.0
 20
0.0
 30
0.0
 70
   128
 71
   164
 72
   165
 73
   194
  0
VERTEX
  5
584
  8
0
 10
0.0
 20
0.0
 30
0.0
 70
   128
 71
   194
 72
   165
 73
   166
  0
VERTEX
  5
585
  8
0
 10
0.0
 20
0.0
 30
0.0
 70
   128
 71
   190
 72
   166
 73
   167
  0
VERTEX
  5
586
  8
0
 10
0.0
 20
0.0
 30
0.0
 70
   128
 71
   168
 72
   190
 73
   167
  0
VERTEX
  5
587
  8
0
 10
0.0
 20
0.0
 30
0.0
 70
   128
 71
   168
 72
   169
 73
   190
  0
VERTEX
  5
588
  8
0
 10
0.0
 20
0.0
 30
0.0
 70
   128
 71
   190
 72
   169
 73
   170
  0
VERTEX
  5
589
  8
0
 10
0.0
 20
0.0
 30
0.0
 70
   128
 71
   171
 72
   190
 73
   170
  0
VERTEX
  5
58A
  8
0
 10
0.0
 20
0.0
 30
0.0
 70
   128
 71
   171
 72
   172
 73
   190
  0
VERTEX
  5
58B
  8
0
 10
0.0
 20
0.0
 30
0.0
 70
   128
 71
   190
 72
   172
 73
   186
  0
VERTEX
  5
58C
  8
0
 10
0.0
 20
0.0
 30
0.0
 70
   128
 71
   185
 72
   186
 73
   178
  0
VERTEX
  5
58D
  8
0
 10
0.0
 20
0.0
 30
0.0
 70
   128
 71
   179
 72
   185
 73
   178
  0
VERTEX
  5
58E
  8
0
 10
0.0
 20
0.0
 30
0.0
 70
   128
 71
   179
 72
   180
 73
   185
  0
VERTEX
  5
58F
  8
0
 10
0.0
 20
0.0
 30
0.0
 70
   128
 71
   185
 72
   180
 73
   184
  0
VERTEX
  5
590
  8
0
 10
0.0
 20
0.0
 30
0.0
 70
   128
 71
   188
 72
   184
 73
   183
 74
   187
  0
VERTEX
  5
591
  8
0
 10
0.0
 20
0.0
 30
0.0
 70
   128
 71
   189
 72
   185
 73
   184
 74
   188
  0
VERTEX
  5
592
  8
0
 10
0.0
 20
0.0
 30
0.0
 70
   128
 71
   190
 72
   189
 73
   193
 74
   194
  0
VERTEX
  5
593
  8
0
 10
0.0
 20
0.0
 30
0.0
 70
   128
 71
   190
 72
   194
 73
   166
  0
VERTEX
  5
594
  8
0
 10
0.0
 20
0.0
 30
0.0
 70
   128
 71
    89
 72
    90
 73
   241
  0
VERTEX
  5
595
  8
0
 10
0.0
 20
0.0
 30
0.0
 70
   128
 71
   241
 72
    90
 73
    91
  0
VERTEX
  5
596
  8
0
 10
0.0
 20
0.0
 30
0.0
 70
   128
 71
   242
 72
    91
 73
    92
  0
VERTEX
  5
597
  8
0
 10
0.0
 20
0.0
 30
0.0
 70
   128
 71
    93
 72
   242
 73
    92
  0
VERTEX
  5
598
  8
0
 10
0.0
 20
0.0
 30
0.0
 70
   128
 71
    93
 72
    94
 73
   242
  0
VERTEX
  5
599
  8
0
 10
0.0
 20
0.0
 30
0.0
 70
   128
 71
   242
 72
    94
 73
    95
  0
VERTEX
  5
59A
  8
0
 10
0.0
 20
0.0
 30
0.0
 70
   128
 71
   238
 72
    95
 73
    96
  0
VERTEX
  5
59B
  8
0
 10
0.0
 20
0.0
 30
0.0
 70
   128
 71
   238
 72
   242
 73
    95
  0
VERTEX
  5
59C
  8
0
 10
0.0
 20
0.0
 30
0.0
 70
   128
 71
   172
 72
   173
 73
   186
  0
VERTEX
  5
59D
  8
0
 10
0.0
 20
0.0
 30
0.0
 70
   128
 71
   186
 72
   173
 73
   174
  0
VERTEX
  5
59E
  8
0
 10
0.0
 20
0.0
 30
0.0
 70
   128
 71
   175
 72
   186
 73
   174
  0
VERTEX
  5
59F
  8
0
 10
0.0
 20
0.0
 30
0.0
 70
   128
 71
   175
 72
   176
 73
   186
  0
VERTEX
  5
5A0
  8
0
 10
0.0
 20
0.0
 30
0.0
 70
   128
 71
   186
 72
   176
 73
   178
  0
VERTEX
  5
5A1
  8
0
 10
0.0
 20
0.0
 30
0.0
 70
   128
 71
   178
 72
   176
 73
   177
  0
VERTEX
  5
5A2
  8
0
 10
0.0
 20
0.0
 30
0.0
 70
   128
 71
   180
 72
   181
 73
   184
  0
VERTEX
  5
5A3
  8
0
 10
0.0
 20
0.0
 30
0.0
 70
   128
 71
   184
 72
   181
 73
   183
  0
VERTEX
  5
5A4
  8
0
 10
0.0
 20
0.0
 30
0.0
 70
   128
 71
   183
 72
   181
 73
   182
  0
VERTEX
  5
5A5
  8
0
 10
0.0
 20
0.0
 30
0.0
 70
   128
 71
     3
 72
   183
 73
   182
  0
VERTEX
  5
5A6
  8
0
 10
0.0
 20
0.0
 30
0.0
 70
   128
 71
   186
 72
   185
 73
   189
 74
   190
  0
VERTEX
  5
5A7
  8
0
 10
0.0
 20
0.0
 30
0.0
 70
   128
 71
   193
 72
   192
 73
   196
 74
   197
  0
VERTEX
  5
5A8
  8
0
 10
0.0
 20
0.0
 30
0.0
 70
   128
 71
   197
 72
   198
 73
   194
 74
   193
  0
VERTEX
  5
5A9
  8
0
 10
0.0
 20
0.0
 30
0.0
 70
   128
 71
   201
 72
   197
 73
   196
 74
   200
  0
VERTEX
  5
5AA
  8
0
 10
0.0
 20
0.0
 30
0.0
 70
   128
 71
   200
 72
   204
 73
   205
 74
   201
  0
VERTEX
  5
5AB
  8
0
 10
0.0
 20
0.0
 30
0.0
 70
   128
 71
   199
 72
   203
 73
   204
 74
   200
  0
VERTEX
  5
5AC
  8
0
 10
0.0
 20
0.0
 30
0.0
 70
   128
 71
   203
 72
   207
 73
   208
 74
   204
  0
VERTEX
  5
5AD
  8
0
 10
0.0
 20
0.0
 30
0.0
 70
   128
 71
   207
 72
   211
 73
   212
 74
   208
  0
VERTEX
  5
5AE
  8
0
 10
0.0
 20
0.0
 30
0.0
 70
   128
 71
    49
 72
   211
 73
   207
  0
VERTEX
  5
5AF
  8
0
 10
0.0
 20
0.0
 30
0.0
 70
   128
 71
   191
 72
   187
 73
    11
  0
VERTEX
  5
5B0
  8
0
 10
0.0
 20
0.0
 30
0.0
 70
   128
 71
   198
 72
   197
 73
   201
 74
   202
  0
VERTEX
  5
5B1
  8
0
 10
0.0
 20
0.0
 30
0.0
 70
   128
 71
   202
 72
   201
 73
   205
 74
   206
  0
VERTEX
  5
5B2
  8
0
 10
0.0
 20
0.0
 30
0.0
 70
   128
 71
   202
 72
   206
 73
   141
  0
VERTEX
  5
5B3
  8
0
 10
0.0
 20
0.0
 30
0.0
 70
   128
 71
   195
 72
   191
 73
    18
  0
VERTEX
  5
5B4
  8
0
 10
0.0
 20
0.0
 30
0.0
 70
   128
 71
   205
 72
   204
 73
   208
 74
   209
  0
VERTEX
  5
5B5
  8
0
 10
0.0
 20
0.0
 30
0.0
 70
   128
 71
   209
 72
   210
 73
   206
 74
   205
  0
VERTEX
  5
5B6
  8
0
 10
0.0
 20
0.0
 30
0.0
 70
   128
 71
   213
 72
   209
 73
   208
 74
   212
  0
VERTEX
  5
5B7
  8
0
 10
0.0
 20
0.0
 30
0.0
 70
   128
 71
   212
 72
   216
 73
   217
 74
   213
  0
VERTEX
  5
5B8
  8
0
 10
0.0
 20
0.0
 30
0.0
 70
   128
 71
   211
 72
   215
 73
   216
 74
   212
  0
VERTEX
  5
5B9
  8
0
 10
0.0
 20
0.0
 30
0.0
 70
   128
 71
   215
 72
   219
 73
   220
 74
   216
  0
VERTEX
  5
5BA
  8
0
 10
0.0
 20
0.0
 30
0.0
 70
   128
 71
    62
 72
   219
 73
   215
  0
VERTEX
  5
5BB
  8
0
 10
0.0
 20
0.0
 30
0.0
 70
   128
 71
   210
 72
   209
 73
   213
 74
   214
  0
VERTEX
  5
5BC
  8
0
 10
0.0
 20
0.0
 30
0.0
 70
   128
 71
   214
 72
   213
 73
   217
 74
   218
  0
VERTEX
  5
5BD
  8
0
 10
0.0
 20
0.0
 30
0.0
 70
   128
 71
   214
 72
   218
 73
   124
  0
VERTEX
  5
5BE
  8
0
 10
0.0
 20
0.0
 30
0.0
 70
   128
 71
   206
 72
   210
 73
   134
  0
VERTEX
  5
5BF
  8
0
 10
0.0
 20
0.0
 30
0.0
 70
   128
 71
   217
 72
   216
 73
   220
 74
   221
  0
VERTEX
  5
5C0
  8
0
 10
0.0
 20
0.0
 30
0.0
 70
   128
 71
   221
 72
   222
 73
   218
 74
   217
  0
VERTEX
  5
5C1
  8
0
 10
0.0
 20
0.0
 30
0.0
 70
   128
 71
   225
 72
   221
 73
   220
 74
   224
  0
VERTEX
  5
5C2
  8
0
 10
0.0
 20
0.0
 30
0.0
 70
   128
 71
   224
 72
   228
 73
   229
 74
   225
  0
VERTEX
  5
5C3
  8
0
 10
0.0
 20
0.0
 30
0.0
 70
   128
 71
   223
 72
   224
 73
   220
 74
   219
  0
VERTEX
  5
5C4
  8
0
 10
0.0
 20
0.0
 30
0.0
 70
   128
 71
   227
 72
   223
 73
    75
  0
VERTEX
  5
5C5
  8
0
 10
0.0
 20
0.0
 30
0.0
 70
   128
 71
   227
 72
   228
 73
   224
 74
   223
  0
VERTEX
  5
5C6
  8
0
 10
0.0
 20
0.0
 30
0.0
 70
   128
 71
   231
 72
   232
 73
   228
 74
   227
  0
VERTEX
  5
5C7
  8
0
 10
0.0
 20
0.0
 30
0.0
 70
   128
 71
   232
 72
   233
 73
   229
 74
   228
  0
VERTEX
  5
5C8
  8
0
 10
0.0
 20
0.0
 30
0.0
 70
   128
 71
   233
 72
   234
 73
   230
 74
   229
  0
VERTEX
  5
5C9
  8
0
 10
0.0
 20
0.0
 30
0.0
 70
   128
 71
   229
 72
   230
 73
   226
 74
   225
  0
VERTEX
  5
5CA
  8
0
 10
0.0
 20
0.0
 30
0.0
 70
   128
 71
   225
 72
   226
 73
   222
 74
   221
  0
VERTEX
  5
5CB
  8
0
 10
0.0
 20
0.0
 30
0.0
 70
   128
 71
   226
 72
   108
 73
   222
  0
VERTEX
  5
5CC
  8
0
 10
0.0
 20
0.0
 30
0.0
 70
   128
 71
   237
 72
   236
 73
   240
 74
   241
  0
VERTEX
  5
5CD
  8
0
 10
0.0
 20
0.0
 30
0.0
 70
   128
 71
   242
 72
   241
 73
    91
  0
SEQEND
  5
5CE
  8
LAYER1
 62
     7
  0
POLYLINE
  5
5CF
  8
LAYER1
 62
     7
 66
     1
 10
0.0
 20
0.0
 30
0.0
 70
    64
 71
   105
 72
   109
  0
VERTEX
  5
5D0
  8
0
 10
0.0
 20
-343.0
 30
-0.0000000000000013
 70
   192
  0
VERTEX
  5
5D1
  8
0
 10
8.991300582885742
 20
-342.8529663085938
 30
0.0000000000001073
 70
   192
  0
VERTEX
  5
5D2
  8
0
 10
17.93460655212402
 20
-342.4035034179688
 30
0.0000000000001072
 70
   192
  0
VERTEX
  5
5D3
  8
0
 10
26.83718299865723
 20
-341.6380615234375
 30
0.0000000000001069
 70
   192
  0
VERTEX
  5
5D4
  8
0
 10
35.70322418212891
 20
-340.5423583984375
 30
0.0000000000001065
 70
   192
  0
VERTEX
  5
5D5
  8
0
 10
44.53233337402344
 20
-339.1018676757812
 30
0.000000000000106
 70
   192
  0
VERTEX
  5
5D6
  8
0
 10
53.30515289306641
 20
-337.3071594238281
 30
0.0000000000001054
 70
   192
  0
VERTEX
  5
5D7
  8
0
 10
61.99911117553711
 20
-335.1618041992188
 30
0.0000000000001046
 70
   192
  0
VERTEX
  5
5D8
  8
0
 10
70.59349060058594
 20
-332.6770629882812
 30
-0.0000000008345323
 70
   192
  0
VERTEX
  5
5D9
  8
0
 10
70.47803497314453
 20
-332.7118530273438
 30
11.70191192626953
 70
   192
  0
VERTEX
  5
5DA
  8
0
 10
70.36424255371094
 20
-332.7362976074219
 30
24.58451843261719
 70
   192
  0
VERTEX
  5
5DB
  8
0
 10
70.24752807617188
 20
-332.7390747070312
 30
37.69812774658203
 70
   192
  0
VERTEX
  5
5DC
  8
0
 10
70.12244415283203
 20
-332.7145690917969
 30
50.0444450378418
 70
   192
  0
VERTEX
  5
5DD
  8
0
 10
69.98419189453125
 20
-332.6639709472656
 30
61.286865234375
 70
   192
  0
VERTEX
  5
5DE
  8
0
 10
69.83084869384766
 20
-332.5909729003906
 30
71.43609619140625
 70
   192
  0
VERTEX
  5
5DF
  8
0
 10
69.66233825683594
 20
-332.4999084472656
 30
80.60050964355469
 70
   192
  0
VERTEX
  5
5E0
  8
0
 10
69.47994995117188
 20
-332.3944396972656
 30
88.90631866455078
 70
   192
  0
VERTEX
  5
5E1
  8
0
 10
69.28573608398438
 20
-332.27734375
 30
96.48087310791016
 70
   192
  0
VERTEX
  5
5E2
  8
0
 10
69.0822525024414
 20
-332.1506652832031
 30
103.4295120239258
 70
   192
  0
VERTEX
  5
5E3
  8
0
 10
68.87226104736328
 20
-332.0159606933594
 30
109.8185424804688
 70
   192
  0
VERTEX
  5
5E4
  8
0
 10
68.6588363647461
 20
-331.874755859375
 30
115.6873092651367
 70
   192
  0
VERTEX
  5
5E5
  8
0
 10
68.44499969482422
 20
-331.7288818359375
 30
121.071907043457
 70
   192
  0
VERTEX
  5
5E6
  8
0
 10
68.23332977294922
 20
-331.579833984375
 30
126.0144500732422
 70
   192
  0
VERTEX
  5
5E7
  8
0
 10
68.0255126953125
 20
-331.4287719726562
 30
130.5611877441406
 70
   192
  0
VERTEX
  5
5E8
  8
0
 10
67.82257843017578
 20
-331.2766418457031
 30
134.7572784423828
 70
   192
  0
VERTEX
  5
5E9
  8
0
 10
67.62528991699219
 20
-331.1241149902344
 30
138.6413726806641
 70
   192
  0
VERTEX
  5
5EA
  8
0
 10
67.43429565429688
 20
-330.9721374511719
 30
142.2425384521484
 70
   192
  0
VERTEX
  5
5EB
  8
0
 10
67.25019073486328
 20
-330.8216552734375
 30
145.5822448730469
 70
   192
  0
VERTEX
  5
5EC
  8
0
 10
67.07222747802734
 20
-330.6725769042969
 30
148.6986083984375
 70
   192
  0
VERTEX
  5
5ED
  8
0
 10
66.89571380615234
 20
-330.5213012695312
 30
151.6906433105469
 70
   192
  0
VERTEX
  5
5EE
  8
0
 10
66.71337890625
 20
-330.3615417480469
 30
154.6864471435547
 70
   192
  0
VERTEX
  5
5EF
  8
0
 10
66.52264404296875
 20
-330.1907348632812
 30
157.7248382568359
 70
   192
  0
VERTEX
  5
5F0
  8
0
 10
66.32653045654297
 20
-330.0111999511719
 30
160.7564697265625
 70
   192
  0
VERTEX
  5
5F1
  8
0
 10
66.12620544433594
 20
-329.82373046875
 30
163.7644348144531
 70
   192
  0
VERTEX
  5
5F2
  8
0
 10
65.92027282714844
 20
-329.626953125
 30
166.7690734863281
 70
   192
  0
VERTEX
  5
5F3
  8
0
 10
65.7081527709961
 20
-329.4201354980469
 30
169.7765350341797
 70
   192
  0
VERTEX
  5
5F4
  8
0
 10
65.48967742919922
 20
-329.2040710449219
 30
172.7756042480469
 70
   192
  0
VERTEX
  5
5F5
  8
0
 10
65.26216888427734
 20
-328.9793090820312
 30
175.766357421875
 70
   192
  0
VERTEX
  5
5F6
  8
0
 10
65.01725006103516
 20
-328.7421264648438
 30
178.8057250976562
 70
   192
  0
VERTEX
  5
5F7
  8
0
 10
64.73831176757812
 20
-328.4826049804688
 30
182.0206756591797
 70
   192
  0
VERTEX
  5
5F8
  8
0
 10
64.4036865234375
 20
-328.1883239746094
 30
185.5496673583984
 70
   192
  0
VERTEX
  5
5F9
  8
0
 10
63.99089050292969
 20
-327.8511047363281
 30
189.4682464599609
 70
   192
  0
VERTEX
  5
5FA
  8
0
 10
63.4730224609375
 20
-327.4671630859375
 30
193.8030242919922
 70
   192
  0
VERTEX
  5
5FB
  8
0
 10
62.82427215576172
 20
-327.037841796875
 30
198.5215759277344
 70
   192
  0
VERTEX
  5
5FC
  8
0
 10
62.03678894042969
 20
-326.5805053710938
 30
203.4378204345703
 70
   192
  0
VERTEX
  5
5FD
  8
0
 10
61.13816070556641
 20
-326.1246032714844
 30
208.2536163330078
 70
   192
  0
VERTEX
  5
5FE
  8
0
 10
60.17770385742188
 20
-325.6962585449219
 30
212.715576171875
 70
   192
  0
VERTEX
  5
5FF
  8
0
 10
59.19643020629883
 20
-325.3047180175781
 30
216.7339324951172
 70
   192
  0
VERTEX
  5
600
  8
0
 10
58.21596527099609
 20
-324.9474182128906
 30
220.3375701904297
 70
   192
  0
VERTEX
  5
601
  8
0
 10
57.24467849731445
 20
-324.6195373535156
 30
223.5845794677734
 70
   192
  0
VERTEX
  5
602
  8
0
 10
56.2867546081543
 20
-324.31787109375
 30
226.5221405029297
 70
   192
  0
VERTEX
  5
603
  8
0
 10
55.3457145690918
 20
-324.0404052734375
 30
229.1852569580078
 70
   192
  0
VERTEX
  5
604
  8
0
 10
54.42691802978516
 20
-323.7864379882812
 30
231.5956726074219
 70
   192
  0
VERTEX
  5
605
  8
0
 10
53.53585052490234
 20
-323.5554809570312
 30
233.7707672119141
 70
   192
  0
VERTEX
  5
606
  8
0
 10
52.67311859130859
 20
-323.3458557128906
 30
235.7365112304688
 70
   192
  0
VERTEX
  5
607
  8
0
 10
51.83368301391602
 20
-323.1549072265625
 30
237.5265350341797
 70
   192
  0
VERTEX
  5
608
  8
0
 10
51.01155471801758
 20
-322.9801940917969
 30
239.1700134277344
 70
   192
  0
VERTEX
  5
609
  8
0
 10
50.20663070678711
 20
-322.8207092285156
 30
240.6805419921875
 70
   192
  0
VERTEX
  5
60A
  8
0
 10
49.42651748657227
 20
-322.6768798828125
 30
242.0569610595703
 70
   192
  0
VERTEX
  5
60B
  8
0
 10
48.68158340454102
 20
-322.54931640625
 30
243.2953186035156
 70
   192
  0
VERTEX
  5
60C
  8
0
 10
47.98157501220703
 20
-322.4380493164062
 30
244.3944854736328
 70
   192
  0
VERTEX
  5
60D
  8
0
 10
47.33314514160156
 20
-322.3424987792969
 30
245.3587646484375
 70
   192
  0
VERTEX
  5
60E
  8
0
 10
46.7357292175293
 20
-322.2608642578125
 30
246.20263671875
 70
   192
  0
VERTEX
  5
60F
  8
0
 10
46.17962265014648
 20
-322.1905212402344
 30
246.9507904052734
 70
   192
  0
VERTEX
  5
610
  8
0
 10
45.64760208129883
 20
-322.1282043457031
 30
247.6338195800781
 70
   192
  0
VERTEX
  5
611
  8
0
 10
45.12066268920898
 20
-322.0713195800781
 30
248.2795867919922
 70
   192
  0
VERTEX
  5
612
  8
0
 10
44.5888557434082
 20
-322.0187072753906
 30
248.9013214111328
 70
   192
  0
VERTEX
  5
613
  8
0
 10
44.05495071411133
 20
-321.970703125
 30
249.4961395263672
 70
   192
  0
VERTEX
  5
614
  8
0
 10
43.52481460571289
 20
-321.9277648925781
 30
250.058349609375
 70
   192
  0
VERTEX
  5
615
  8
0
 10
42.99863052368164
 20
-321.8898010253906
 30
250.5889434814453
 70
   192
  0
VERTEX
  5
616
  8
0
 10
42.47175216674805
 20
-321.8564758300781
 30
251.0933685302734
 70
   192
  0
VERTEX
  5
617
  8
0
 10
41.93555068969727
 20
-321.8272399902344
 30
251.5800170898438
 70
   192
  0
VERTEX
  5
618
  8
0
 10
41.38623046875
 20
-321.8018798828125
 30
252.0523529052734
 70
   192
  0
VERTEX
  5
619
  8
0
 10
40.82013320922852
 20
-321.7802734375
 30
252.5132141113281
 70
   192
  0
VERTEX
  5
61A
  8
0
 10
40.22206497192383
 20
-321.7619934082031
 30
252.9736022949219
 70
   192
  0
VERTEX
  5
61B
  8
0
 10
39.55965042114258
 20
-321.7467651367188
 30
253.4541320800781
 70
   192
  0
VERTEX
  5
61C
  8
0
 10
38.79453277587891
 20
-321.7350463867188
 30
253.9738159179688
 70
   192
  0
VERTEX
  5
61D
  8
0
 10
37.90276718139648
 20
-321.7287292480469
 30
254.5353088378906
 70
   192
  0
VERTEX
  5
61E
  8
0
 10
36.88359832763672
 20
-321.7300415039062
 30
255.1236267089844
 70
   192
  0
VERTEX
  5
61F
  8
0
 10
35.74631500244141
 20
-321.7409057617188
 30
255.7197418212891
 70
   192
  0
VERTEX
  5
620
  8
0
 10
34.49587249755859
 20
-321.7623901367188
 30
256.3102416992188
 70
   192
  0
VERTEX
  5
621
  8
0
 10
33.12174606323242
 20
-321.7953186035156
 30
256.8906555175781
 70
   192
  0
VERTEX
  5
622
  8
0
 10
31.58811187744141
 20
-321.8410034179688
 30
257.4649658203125
 70
   192
  0
VERTEX
  5
623
  8
0
 10
29.84342765808105
 20
-321.9013671875
 30
258.0374755859375
 70
   192
  0
VERTEX
  5
624
  8
0
 10
27.85316276550293
 20
-321.9776916503906
 30
258.6004028320312
 70
   192
  0
VERTEX
  5
625
  8
0
 10
25.60789680480957
 20
-322.0695495605469
 30
259.1365966796875
 70
   192
  0
VERTEX
  5
626
  8
0
 10
23.08849906921387
 20
-322.1751708984375
 30
259.6334838867188
 70
   192
  0
VERTEX
  5
627
  8
0
 10
20.25926399230957
 20
-322.2916564941406
 30
260.0821533203125
 70
   192
  0
VERTEX
  5
628
  8
0
 10
17.07821273803711
 20
-322.4142456054688
 30
260.4727172851562
 70
   192
  0
VERTEX
  5
629
  8
0
 10
13.49996471405029
 20
-322.5357360839844
 30
260.7933044433594
 70
   192
  0
VERTEX
  5
62A
  8
0
 10
9.484354972839355
 20
-322.6450500488281
 30
261.0316467285156
 70
   192
  0
VERTEX
  5
62B
  8
0
 10
5.005630493164062
 20
-322.726318359375
 30
261.1779174804688
 70
   192
  0
VERTEX
  5
62C
  8
0
 10
-0.0001139735613833
 20
-322.7590942382812
 30
261.227294921875
 70
   192
  0
VERTEX
  5
62D
  8
0
 10
0.0
 20
-328.8561706542969
 30
236.5068054199219
 70
   192
  0
VERTEX
  5
62E
  8
0
 10
0.0
 20
-333.8389282226562
 30
208.1025848388672
 70
   192
  0
VERTEX
  5
62F
  8
0
 10
0.0
 20
-337.7600708007812
 30
175.7670593261719
 70
   192
  0
VERTEX
  5
630
  8
0
 10
0.0
 20
-340.5350036621094
 30
139.1320037841797
 70
   192
  0
VERTEX
  5
631
  8
0
 10
0.0
 20
-342.1650085449219
 30
97.92420196533203
 70
   192
  0
VERTEX
  5
632
  8
0
 10
0.0
 20
-342.8798828125
 30
51.8276252746582
 70
   192
  0
VERTEX
  5
633
  8
0
 10
35.93537521362305
 20
-340.4629821777344
 30
37.97335815429688
 70
   192
  0
VERTEX
  5
634
  8
0
 10
35.93537521362305
 20
-340.1195678710938
 30
76.15357971191406
 70
   192
  0
VERTEX
  5
635
  8
0
 10
35.93537521362305
 20
-339.1689453125
 30
114.356330871582
 70
   192
  0
VERTEX
  5
636
  8
0
 10
35.93537521362305
 20
-337.2046203613281
 30
152.4251556396484
 70
   192
  0
VERTEX
  5
637
  8
0
 10
35.93537521362305
 20
-333.6776428222656
 30
190.3573455810547
 70
   192
  0
VERTEX
  5
638
  8
0
 10
35.93537521362305
 20
-328.0173950195312
 30
227.9337615966797
 70
   192
  0
VERTEX
  5
639
  8
0
 10
0.0
 20
0.0
 30
0.0
 70
   128
 71
     1
 72
     2
 73
    99
  0
VERTEX
  5
63A
  8
0
 10
0.0
 20
0.0
 30
0.0
 70
   128
 71
    99
 72
     2
 73
     3
  0
VERTEX
  5
63B
  8
0
 10
0.0
 20
0.0
 30
0.0
 70
   128
 71
   100
 72
     3
 73
     4
  0
VERTEX
  5
63C
  8
0
 10
0.0
 20
0.0
 30
0.0
 70
   128
 71
     5
 72
   100
 73
     4
  0
VERTEX
  5
63D
  8
0
 10
0.0
 20
0.0
 30
0.0
 70
   128
 71
     5
 72
     6
 73
   100
  0
VERTEX
  5
63E
  8
0
 10
0.0
 20
0.0
 30
0.0
 70
   128
 71
   100
 72
     6
 73
     7
  0
VERTEX
  5
63F
  8
0
 10
0.0
 20
0.0
 30
0.0
 70
   128
 71
    11
 72
     7
 73
    10
  0
VERTEX
  5
640
  8
0
 10
0.0
 20
0.0
 30
0.0
 70
   128
 71
    11
 72
   100
 73
     7
  0
VERTEX
  5
641
  8
0
 10
0.0
 20
0.0
 30
0.0
 70
   128
 71
    11
 72
    12
 73
   100
  0
VERTEX
  5
642
  8
0
 10
0.0
 20
0.0
 30
0.0
 70
   128
 71
   100
 72
    12
 73
    13
  0
VERTEX
  5
643
  8
0
 10
0.0
 20
0.0
 30
0.0
 70
   128
 71
    14
 72
   100
 73
    13
  0
VERTEX
  5
644
  8
0
 10
0.0
 20
0.0
 30
0.0
 70
   128
 71
    14
 72
   101
 73
   100
  0
VERTEX
  5
645
  8
0
 10
0.0
 20
0.0
 30
0.0
 70
   128
 71
    14
 72
    15
 73
   101
  0
VERTEX
  5
646
  8
0
 10
0.0
 20
0.0
 30
0.0
 70
   128
 71
   101
 72
    15
 73
    16
  0
VERTEX
  5
647
  8
0
 10
0.0
 20
0.0
 30
0.0
 70
   128
 71
    17
 72
   101
 73
    16
  0
VERTEX
  5
648
  8
0
 10
0.0
 20
0.0
 30
0.0
 70
   128
 71
    17
 72
    18
 73
   101
  0
VERTEX
  5
649
  8
0
 10
0.0
 20
0.0
 30
0.0
 70
   128
 71
   101
 72
    18
 73
   102
  0
VERTEX
  5
64A
  8
0
 10
0.0
 20
0.0
 30
0.0
 70
   128
 71
    98
 72
   102
 73
    97
  0
VERTEX
  5
64B
  8
0
 10
0.0
 20
0.0
 30
0.0
 70
   128
 71
    98
 72
   101
 73
   102
  0
VERTEX
  5
64C
  8
0
 10
0.0
 20
0.0
 30
0.0
 70
   128
 71
    98
 72
    99
 73
   101
  0
VERTEX
  5
64D
  8
0
 10
0.0
 20
0.0
 30
0.0
 70
   128
 71
   101
 72
    99
 73
   100
  0
VERTEX
  5
64E
  8
0
 10
0.0
 20
0.0
 30
0.0
 70
   128
 71
   100
 72
    99
 73
     3
  0
VERTEX
  5
64F
  8
0
 10
0.0
 20
0.0
 30
0.0
 70
   128
 71
     7
 72
     8
 73
    10
  0
VERTEX
  5
650
  8
0
 10
0.0
 20
0.0
 30
0.0
 70
   128
 71
    10
 72
     8
 73
     9
  0
VERTEX
  5
651
  8
0
 10
0.0
 20
0.0
 30
0.0
 70
   128
 71
    18
 72
    19
 73
   102
  0
VERTEX
  5
652
  8
0
 10
0.0
 20
0.0
 30
0.0
 70
   128
 71
   102
 72
    19
 73
    20
  0
VERTEX
  5
653
  8
0
 10
0.0
 20
0.0
 30
0.0
 70
   128
 71
    21
 72
   102
 73
    20
  0
VERTEX
  5
654
  8
0
 10
0.0
 20
0.0
 30
0.0
 70
   128
 71
    21
 72
    22
 73
   102
  0
VERTEX
  5
655
  8
0
 10
0.0
 20
0.0
 30
0.0
 70
   128
 71
   102
 72
    22
 73
    23
  0
VERTEX
  5
656
  8
0
 10
0.0
 20
0.0
 30
0.0
 70
   128
 71
    24
 72
   102
 73
    23
  0
VERTEX
  5
657
  8
0
 10
0.0
 20
0.0
 30
0.0
 70
   128
 71
    24
 72
    25
 73
   102
  0
VERTEX
  5
658
  8
0
 10
0.0
 20
0.0
 30
0.0
 70
   128
 71
   102
 72
    25
 73
   103
  0
VERTEX
  5
659
  8
0
 10
0.0
 20
0.0
 30
0.0
 70
   128
 71
    97
 72
   103
 73
    96
  0
VERTEX
  5
65A
  8
0
 10
0.0
 20
0.0
 30
0.0
 70
   128
 71
    97
 72
   102
 73
   103
  0
VERTEX
  5
65B
  8
0
 10
0.0
 20
0.0
 30
0.0
 70
   128
 71
    25
 72
    26
 73
   103
  0
VERTEX
  5
65C
  8
0
 10
0.0
 20
0.0
 30
0.0
 70
   128
 71
   103
 72
    26
 73
    27
  0
VERTEX
  5
65D
  8
0
 10
0.0
 20
0.0
 30
0.0
 70
   128
 71
    28
 72
   103
 73
    27
  0
VERTEX
  5
65E
  8
0
 10
0.0
 20
0.0
 30
0.0
 70
   128
 71
    28
 72
    29
 73
   103
  0
VERTEX
  5
65F
  8
0
 10
0.0
 20
0.0
 30
0.0
 70
   128
 71
   103
 72
    29
 73
    30
  0
VERTEX
  5
660
  8
0
 10
0.0
 20
0.0
 30
0.0
 70
   128
 71
    31
 72
   103
 73
    30
  0
VERTEX
  5
661
  8
0
 10
0.0
 20
0.0
 30
0.0
 70
   128
 71
    31
 72
    32
 73
   103
  0
VERTEX
  5
662
  8
0
 10
0.0
 20
0.0
 30
0.0
 70
   128
 71
   103
 72
    32
 73
    33
  0
VERTEX
  5
663
  8
0
 10
0.0
 20
0.0
 30
0.0
 70
   128
 71
    34
 72
   103
 73
    33
  0
VERTEX
  5
664
  8
0
 10
0.0
 20
0.0
 30
0.0
 70
   128
 71
    34
 72
    35
 73
   103
  0
VERTEX
  5
665
  8
0
 10
0.0
 20
0.0
 30
0.0
 70
   128
 71
   103
 72
    35
 73
    36
  0
VERTEX
  5
666
  8
0
 10
0.0
 20
0.0
 30
0.0
 70
   128
 71
    37
 72
   103
 73
    36
  0
VERTEX
  5
667
  8
0
 10
0.0
 20
0.0
 30
0.0
 70
   128
 71
    37
 72
   104
 73
   103
  0
VERTEX
  5
668
  8
0
 10
0.0
 20
0.0
 30
0.0
 70
   128
 71
    37
 72
    38
 73
   104
  0
VERTEX
  5
669
  8
0
 10
0.0
 20
0.0
 30
0.0
 70
   128
 71
   104
 72
    38
 73
    39
  0
VERTEX
  5
66A
  8
0
 10
0.0
 20
0.0
 30
0.0
 70
   128
 71
    40
 72
   104
 73
    39
  0
VERTEX
  5
66B
  8
0
 10
0.0
 20
0.0
 30
0.0
 70
   128
 71
    40
 72
    41
 73
   104
  0
VERTEX
  5
66C
  8
0
 10
0.0
 20
0.0
 30
0.0
 70
   128
 71
   104
 72
    41
 73
    42
  0
VERTEX
  5
66D
  8
0
 10
0.0
 20
0.0
 30
0.0
 70
   128
 71
    43
 72
   104
 73
    42
  0
VERTEX
  5
66E
  8
0
 10
0.0
 20
0.0
 30
0.0
 70
   128
 71
    43
 72
    44
 73
   104
  0
VERTEX
  5
66F
  8
0
 10
0.0
 20
0.0
 30
0.0
 70
   128
 71
   104
 72
    44
 73
    45
  0
VERTEX
  5
670
  8
0
 10
0.0
 20
0.0
 30
0.0
 70
   128
 71
    46
 72
   104
 73
    45
  0
VERTEX
  5
671
  8
0
 10
0.0
 20
0.0
 30
0.0
 70
   128
 71
    46
 72
    47
 73
   104
  0
VERTEX
  5
672
  8
0
 10
0.0
 20
0.0
 30
0.0
 70
   128
 71
   104
 72
    47
 73
    48
  0
VERTEX
  5
673
  8
0
 10
0.0
 20
0.0
 30
0.0
 70
   128
 71
   105
 72
    48
 73
    49
  0
VERTEX
  5
674
  8
0
 10
0.0
 20
0.0
 30
0.0
 70
   128
 71
    50
 72
   105
 73
    49
  0
VERTEX
  5
675
  8
0
 10
0.0
 20
0.0
 30
0.0
 70
   128
 71
    50
 72
    51
 73
   105
  0
VERTEX
  5
676
  8
0
 10
0.0
 20
0.0
 30
0.0
 70
   128
 71
   105
 72
    51
 73
    52
  0
VERTEX
  5
677
  8
0
 10
0.0
 20
0.0
 30
0.0
 70
   128
 71
    53
 72
   105
 73
    52
  0
VERTEX
  5
678
  8
0
 10
0.0
 20
0.0
 30
0.0
 70
   128
 71
    53
 72
    54
 73
   105
  0
VERTEX
  5
679
  8
0
 10
0.0
 20
0.0
 30
0.0
 70
   128
 71
   105
 72
    54
 73
    55
  0
VERTEX
  5
67A
  8
0
 10
0.0
 20
0.0
 30
0.0
 70
   128
 71
    56
 72
   105
 73
    55
  0
VERTEX
  5
67B
  8
0
 10
0.0
 20
0.0
 30
0.0
 70
   128
 71
    56
 72
    57
 73
   105
  0
VERTEX
  5
67C
  8
0
 10
0.0
 20
0.0
 30
0.0
 70
   128
 71
   105
 72
    57
 73
    58
  0
VERTEX
  5
67D
  8
0
 10
0.0
 20
0.0
 30
0.0
 70
   128
 71
    59
 72
   105
 73
    58
  0
VERTEX
  5
67E
  8
0
 10
0.0
 20
0.0
 30
0.0
 70
   128
 71
    59
 72
    60
 73
   105
  0
VERTEX
  5
67F
  8
0
 10
0.0
 20
0.0
 30
0.0
 70
   128
 71
   105
 72
    60
 73
    61
  0
VERTEX
  5
680
  8
0
 10
0.0
 20
0.0
 30
0.0
 70
   128
 71
    62
 72
   105
 73
    61
  0
VERTEX
  5
681
  8
0
 10
0.0
 20
0.0
 30
0.0
 70
   128
 71
    62
 72
    63
 73
   105
  0
VERTEX
  5
682
  8
0
 10
0.0
 20
0.0
 30
0.0
 70
   128
 71
   105
 72
    63
 73
    64
  0
VERTEX
  5
683
  8
0
 10
0.0
 20
0.0
 30
0.0
 70
   128
 71
    65
 72
   105
 73
    64
  0
VERTEX
  5
684
  8
0
 10
0.0
 20
0.0
 30
0.0
 70
   128
 71
    65
 72
    66
 73
   105
  0
VERTEX
  5
685
  8
0
 10
0.0
 20
0.0
 30
0.0
 70
   128
 71
   105
 72
    66
 73
    67
  0
VERTEX
  5
686
  8
0
 10
0.0
 20
0.0
 30
0.0
 70
   128
 71
    68
 72
   105
 73
    67
  0
VERTEX
  5
687
  8
0
 10
0.0
 20
0.0
 30
0.0
 70
   128
 71
    68
 72
    69
 73
   105
  0
VERTEX
  5
688
  8
0
 10
0.0
 20
0.0
 30
0.0
 70
   128
 71
   105
 72
    69
 73
    70
  0
VERTEX
  5
689
  8
0
 10
0.0
 20
0.0
 30
0.0
 70
   128
 71
    71
 72
   105
 73
    70
  0
VERTEX
  5
68A
  8
0
 10
0.0
 20
0.0
 30
0.0
 70
   128
 71
    71
 72
    72
 73
   105
  0
VERTEX
  5
68B
  8
0
 10
0.0
 20
0.0
 30
0.0
 70
   128
 71
   105
 72
    72
 73
    73
  0
VERTEX
  5
68C
  8
0
 10
0.0
 20
0.0
 30
0.0
 70
   128
 71
    74
 72
   105
 73
    73
  0
VERTEX
  5
68D
  8
0
 10
0.0
 20
0.0
 30
0.0
 70
   128
 71
    74
 72
    75
 73
   105
  0
VERTEX
  5
68E
  8
0
 10
0.0
 20
0.0
 30
0.0
 70
   128
 71
   105
 72
    75
 73
    76
  0
VERTEX
  5
68F
  8
0
 10
0.0
 20
0.0
 30
0.0
 70
   128
 71
    77
 72
   105
 73
    76
  0
VERTEX
  5
690
  8
0
 10
0.0
 20
0.0
 30
0.0
 70
   128
 71
    77
 72
    78
 73
   105
  0
VERTEX
  5
691
  8
0
 10
0.0
 20
0.0
 30
0.0
 70
   128
 71
   105
 72
    78
 73
    79
  0
VERTEX
  5
692
  8
0
 10
0.0
 20
0.0
 30
0.0
 70
   128
 71
    80
 72
   105
 73
    79
  0
VERTEX
  5
693
  8
0
 10
0.0
 20
0.0
 30
0.0
 70
   128
 71
    80
 72
    81
 73
   105
  0
VERTEX
  5
694
  8
0
 10
0.0
 20
0.0
 30
0.0
 70
   128
 71
   105
 72
    81
 73
    82
  0
VERTEX
  5
695
  8
0
 10
0.0
 20
0.0
 30
0.0
 70
   128
 71
    83
 72
   105
 73
    82
  0
VERTEX
  5
696
  8
0
 10
0.0
 20
0.0
 30
0.0
 70
   128
 71
    83
 72
    84
 73
   105
  0
VERTEX
  5
697
  8
0
 10
0.0
 20
0.0
 30
0.0
 70
   128
 71
   105
 72
    84
 73
    85
  0
VERTEX
  5
698
  8
0
 10
0.0
 20
0.0
 30
0.0
 70
   128
 71
    86
 72
   105
 73
    85
  0
VERTEX
  5
699
  8
0
 10
0.0
 20
0.0
 30
0.0
 70
   128
 71
    86
 72
    87
 73
   105
  0
VERTEX
  5
69A
  8
0
 10
0.0
 20
0.0
 30
0.0
 70
   128
 71
   105
 72
    87
 73
    94
  0
VERTEX
  5
69B
  8
0
 10
0.0
 20
0.0
 30
0.0
 70
   128
 71
    95
 72
   105
 73
    94
  0
VERTEX
  5
69C
  8
0
 10
0.0
 20
0.0
 30
0.0
 70
   128
 71
    95
 72
   104
 73
   105
  0
VERTEX
  5
69D
  8
0
 10
0.0
 20
0.0
 30
0.0
 70
   128
 71
    95
 72
    96
 73
   104
  0
VERTEX
  5
69E
  8
0
 10
0.0
 20
0.0
 30
0.0
 70
   128
 71
   104
 72
    96
 73
   103
  0
VERTEX
  5
69F
  8
0
 10
0.0
 20
0.0
 30
0.0
 70
   128
 71
    87
 72
    88
 73
    94
  0
VERTEX
  5
6A0
  8
0
 10
0.0
 20
0.0
 30
0.0
 70
   128
 71
    94
 72
    88
 73
    89
  0
VERTEX
  5
6A1
  8
0
 10
0.0
 20
0.0
 30
0.0
 70
   128
 71
    90
 72
    94
 73
    89
  0
VERTEX
  5
6A2
  8
0
 10
0.0
 20
0.0
 30
0.0
 70
   128
 71
    90
 72
    91
 73
    94
  0
VERTEX
  5
6A3
  8
0
 10
0.0
 20
0.0
 30
0.0
 70
   128
 71
    94
 72
    91
 73
    92
  0
VERTEX
  5
6A4
  8
0
 10
0.0
 20
0.0
 30
0.0
 70
   128
 71
    93
 72
    94
 73
    92
  0
VERTEX
  5
6A5
  8
0
 10
0.0
 20
0.0
 30
0.0
 70
   128
 71
   105
 72
   104
 73
    48
  0
SEQEND
  5
6A6
  8
LAYER1
 62
     7
  0
POLYLINE
  5
6A7
  8
LAYER1
 62
     7
 66
     1
 10
0.0
 20
0.0
 30
0.0
 70
    64
 71
   105
 72
   109
  0
VERTEX
  5
6A8
  8
0
 10
-0.0001139735613833
 20
-322.7590942382812
 30
261.227294921875
 70
   192
  0
VERTEX
  5
6A9
  8
0
 10
-5.005630493164062
 20
-322.726318359375
 30
261.1779174804688
 70
   192
  0
VERTEX
  5
6AA
  8
0
 10
-9.484354972839355
 20
-322.6450500488281
 30
261.0316467285156
 70
   192
  0
VERTEX
  5
6AB
  8
0
 10
-13.49996471405029
 20
-322.5357360839844
 30
260.7933044433594
 70
   192
  0
VERTEX
  5
6AC
  8
0
 10
-17.07821273803711
 20
-322.4142456054688
 30
260.4727172851562
 70
   192
  0
VERTEX
  5
6AD
  8
0
 10
-20.25926399230957
 20
-322.2916564941406
 30
260.0821533203125
 70
   192
  0
VERTEX
  5
6AE
  8
0
 10
-23.08849906921387
 20
-322.1751708984375
 30
259.6334838867188
 70
   192
  0
VERTEX
  5
6AF
  8
0
 10
-25.60789680480957
 20
-322.0695495605469
 30
259.1365966796875
 70
   192
  0
VERTEX
  5
6B0
  8
0
 10
-27.85316276550293
 20
-321.9776916503906
 30
258.6004028320312
 70
   192
  0
VERTEX
  5
6B1
  8
0
 10
-29.84342765808105
 20
-321.9013671875
 30
258.0374755859375
 70
   192
  0
VERTEX
  5
6B2
  8
0
 10
-31.58811187744141
 20
-321.8410034179688
 30
257.4649658203125
 70
   192
  0
VERTEX
  5
6B3
  8
0
 10
-33.12174606323242
 20
-321.7953186035156
 30
256.8906555175781
 70
   192
  0
VERTEX
  5
6B4
  8
0
 10
-34.49587249755859
 20
-321.7623901367188
 30
256.3102416992188
 70
   192
  0
VERTEX
  5
6B5
  8
0
 10
-35.74631500244141
 20
-321.7409057617188
 30
255.7197418212891
 70
   192
  0
VERTEX
  5
6B6
  8
0
 10
-36.88359832763672
 20
-321.7300415039062
 30
255.1236267089844
 70
   192
  0
VERTEX
  5
6B7
  8
0
 10
-37.90276718139648
 20
-321.7287292480469
 30
254.5353088378906
 70
   192
  0
VERTEX
  5
6B8
  8
0
 10
-38.79453277587891
 20
-321.7350463867188
 30
253.9738159179688
 70
   192
  0
VERTEX
  5
6B9
  8
0
 10
-39.55965042114258
 20
-321.7467651367188
 30
253.4541320800781
 70
   192
  0
VERTEX
  5
6BA
  8
0
 10
-40.22206497192383
 20
-321.7619934082031
 30
252.9736022949219
 70
   192
  0
VERTEX
  5
6BB
  8
0
 10
-40.82013320922852
 20
-321.7802734375
 30
252.5132141113281
 70
   192
  0
VERTEX
  5
6BC
  8
0
 10
-41.38623046875
 20
-321.8018798828125
 30
252.0523529052734
 70
   192
  0
VERTEX
  5
6BD
  8
0
 10
-41.93555068969727
 20
-321.8272399902344
 30
251.5800170898438
 70
   192
  0
VERTEX
  5
6BE
  8
0
 10
-42.47175216674805
 20
-321.8564758300781
 30
251.0933685302734
 70
   192
  0
VERTEX
  5
6BF
  8
0
 10
-42.99863052368164
 20
-321.8898010253906
 30
250.5889434814453
 70
   192
  0
VERTEX
  5
6C0
  8
0
 10
-43.52481460571289
 20
-321.9277648925781
 30
250.058349609375
 70
   192
  0
VERTEX
  5
6C1
  8
0
 10
-44.05495071411133
 20
-321.970703125
 30
249.4961395263672
 70
   192
  0
VERTEX
  5
6C2
  8
0
 10
-44.5888557434082
 20
-322.0187072753906
 30
248.9013214111328
 70
   192
  0
VERTEX
  5
6C3
  8
0
 10
-45.12066268920898
 20
-322.0713195800781
 30
248.2795867919922
 70
   192
  0
VERTEX
  5
6C4
  8
0
 10
-45.64760208129883
 20
-322.1282043457031
 30
247.6338195800781
 70
   192
  0
VERTEX
  5
6C5
  8
0
 10
-46.17962265014648
 20
-322.1905212402344
 30
246.9507904052734
 70
   192
  0
VERTEX
  5
6C6
  8
0
 10
-46.7357292175293
 20
-322.2608642578125
 30
246.20263671875
 70
   192
  0
VERTEX
  5
6C7
  8
0
 10
-47.33314514160156
 20
-322.3424987792969
 30
245.3587646484375
 70
   192
  0
VERTEX
  5
6C8
  8
0
 10
-47.98157501220703
 20
-322.4380493164062
 30
244.3944854736328
 70
   192
  0
VERTEX
  5
6C9
  8
0
 10
-48.68158340454102
 20
-322.54931640625
 30
243.2953186035156
 70
   192
  0
VERTEX
  5
6CA
  8
0
 10
-49.42651748657227
 20
-322.6768798828125
 30
242.0569610595703
 70
   192
  0
VERTEX
  5
6CB
  8
0
 10
-50.20663070678711
 20
-322.8207092285156
 30
240.6805419921875
 70
   192
  0
VERTEX
  5
6CC
  8
0
 10
-51.01155471801758
 20
-322.9801940917969
 30
239.1700134277344
 70
   192
  0
VERTEX
  5
6CD
  8
0
 10
-51.83368301391602
 20
-323.1549072265625
 30
237.5265350341797
 70
   192
  0
VERTEX
  5
6CE
  8
0
 10
-52.67311859130859
 20
-323.3458557128906
 30
235.7365112304688
 70
   192
  0
VERTEX
  5
6CF
  8
0
 10
-53.53585052490234
 20
-323.5554809570312
 30
233.7707672119141
 70
   192
  0
VERTEX
  5
6D0
  8
0
 10
-54.42691802978516
 20
-323.7864379882812
 30
231.5956726074219
 70
   192
  0
VERTEX
  5
6D1
  8
0
 10
-55.3457145690918
 20
-324.0404052734375
 30
229.1852569580078
 70
   192
  0
VERTEX
  5
6D2
  8
0
 10
-56.2867546081543
 20
-324.31787109375
 30
226.5221405029297
 70
   192
  0
VERTEX
  5
6D3
  8
0
 10
-57.24467849731445
 20
-324.6195373535156
 30
223.5845794677734
 70
   192
  0
VERTEX
  5
6D4
  8
0
 10
-58.21596527099609
 20
-324.9474182128906
 30
220.3375701904297
 70
   192
  0
VERTEX
  5
6D5
  8
0
 10
-59.19643020629883
 20
-325.3047180175781
 30
216.7339324951172
 70
   192
  0
VERTEX
  5
6D6
  8
0
 10
-60.17770385742188
 20
-325.6962585449219
 30
212.715576171875
 70
   192
  0
VERTEX
  5
6D7
  8
0
 10
-61.13816070556641
 20
-326.1246032714844
 30
208.2536163330078
 70
   192
  0
VERTEX
  5
6D8
  8
0
 10
-62.03678894042969
 20
-326.5805053710938
 30
203.4378204345703
 70
   192
  0
VERTEX
  5
6D9
  8
0
 10
-62.82427215576172
 20
-327.037841796875
 30
198.5215759277344
 70
   192
  0
VERTEX
  5
6DA
  8
0
 10
-63.4730224609375
 20
-327.4671630859375
 30
193.8030242919922
 70
   192
  0
VERTEX
  5
6DB
  8
0
 10
-63.99089050292969
 20
-327.8511047363281
 30
189.4682464599609
 70
   192
  0
VERTEX
  5
6DC
  8
0
 10
-64.4036865234375
 20
-328.1883239746094
 30
185.5496673583984
 70
   192
  0
VERTEX
  5
6DD
  8
0
 10
-64.73831176757812
 20
-328.4826049804688
 30
182.0206756591797
 70
   192
  0
VERTEX
  5
6DE
  8
0
 10
-65.01725006103516
 20
-328.7421264648438
 30
178.8057250976562
 70
   192
  0
VERTEX
  5
6DF
  8
0
 10
-65.26216888427734
 20
-328.9793090820312
 30
175.766357421875
 70
   192
  0
VERTEX
  5
6E0
  8
0
 10
-65.48967742919922
 20
-329.2040710449219
 30
172.7756042480469
 70
   192
  0
VERTEX
  5
6E1
  8
0
 10
-65.7081527709961
 20
-329.4201354980469
 30
169.7765350341797
 70
   192
  0
VERTEX
  5
6E2
  8
0
 10
-65.92027282714844
 20
-329.626953125
 30
166.7690734863281
 70
   192
  0
VERTEX
  5
6E3
  8
0
 10
-66.12620544433594
 20
-329.82373046875
 30
163.7644348144531
 70
   192
  0
VERTEX
  5
6E4
  8
0
 10
-66.32653045654297
 20
-330.0111999511719
 30
160.7564697265625
 70
   192
  0
VERTEX
  5
6E5
  8
0
 10
-66.52264404296875
 20
-330.1907348632812
 30
157.7248382568359
 70
   192
  0
VERTEX
  5
6E6
  8
0
 10
-66.71337890625
 20
-330.3615417480469
 30
154.6864471435547
 70
   192
  0
VERTEX
  5
6E7
  8
0
 10
-66.89571380615234
 20
-330.5213012695312
 30
151.6906433105469
 70
   192
  0
VERTEX
  5
6E8
  8
0
 10
-67.07222747802734
 20
-330.6725769042969
 30
148.6986083984375
 70
   192
  0
VERTEX
  5
6E9
  8
0
 10
-67.25019073486328
 20
-330.8216552734375
 30
145.5822448730469
 70
   192
  0
VERTEX
  5
6EA
  8
0
 10
-67.43429565429688
 20
-330.9721374511719
 30
142.2425384521484
 70
   192
  0
VERTEX
  5
6EB
  8
0
 10
-67.62528991699219
 20
-331.1241149902344
 30
138.6413726806641
 70
   192
  0
VERTEX
  5
6EC
  8
0
 10
-67.82257843017578
 20
-331.2766418457031
 30
134.7572784423828
 70
   192
  0
VERTEX
  5
6ED
  8
0
 10
-68.0255126953125
 20
-331.4287719726562
 30
130.5611877441406
 70
   192
  0
VERTEX
  5
6EE
  8
0
 10
-68.23332977294922
 20
-331.579833984375
 30
126.0144500732422
 70
   192
  0
VERTEX
  5
6EF
  8
0
 10
-68.44499969482422
 20
-331.7288818359375
 30
121.071907043457
 70
   192
  0
VERTEX
  5
6F0
  8
0
 10
-68.6588363647461
 20
-331.874755859375
 30
115.6873092651367
 70
   192
  0
VERTEX
  5
6F1
  8
0
 10
-68.87226104736328
 20
-332.0159606933594
 30
109.8185424804688
 70
   192
  0
VERTEX
  5
6F2
  8
0
 10
-69.0822525024414
 20
-332.1506652832031
 30
103.4295120239258
 70
   192
  0
VERTEX
  5
6F3
  8
0
 10
-69.28573608398438
 20
-332.27734375
 30
96.48087310791016
 70
   192
  0
VERTEX
  5
6F4
  8
0
 10
-69.47994995117188
 20
-332.3944396972656
 30
88.90631866455078
 70
   192
  0
VERTEX
  5
6F5
  8
0
 10
-69.66233825683594
 20
-332.4999084472656
 30
80.60050964355469
 70
   192
  0
VERTEX
  5
6F6
  8
0
 10
-69.83084869384766
 20
-332.5909729003906
 30
71.43609619140625
 70
   192
  0
VERTEX
  5
6F7
  8
0
 10
-69.98419189453125
 20
-332.6639709472656
 30
61.286865234375
 70
   192
  0
VERTEX
  5
6F8
  8
0
 10
-70.12244415283203
 20
-332.7145690917969
 30
50.0444450378418
 70
   192
  0
VERTEX
  5
6F9
  8
0
 10
-70.24752807617188
 20
-332.7390747070312
 30
37.69812774658203
 70
   192
  0
VERTEX
  5
6FA
  8
0
 10
-70.36424255371094
 20
-332.7362976074219
 30
24.58451843261719
 70
   192
  0
VERTEX
  5
6FB
  8
0
 10
-70.47803497314453
 20
-332.7118530273438
 30
11.70191192626953
 70
   192
  0
VERTEX
  5
6FC
  8
0
 10
-70.59349060058594
 20
-332.6770629882812
 30
-0.0000000008345323
 70
   192
  0
VERTEX
  5
6FD
  8
0
 10
-61.99911117553711
 20
-335.1618041992188
 30
0.0000000000001046
 70
   192
  0
VERTEX
  5
6FE
  8
0
 10
-53.30515289306641
 20
-337.3071594238281
 30
0.0000000000001054
 70
   192
  0
VERTEX
  5
6FF
  8
0
 10
-44.53233337402344
 20
-339.1018676757812
 30
0.000000000000106
 70
   192
  0
VERTEX
  5
700
  8
0
 10
-35.70322418212891
 20
-340.5423583984375
 30
0.0000000000001065
 70
   192
  0
VERTEX
  5
701
  8
0
 10
-26.83718299865723
 20
-341.6380615234375
 30
0.0000000000001069
 70
   192
  0
VERTEX
  5
702
  8
0
 10
-17.93460655212402
 20
-342.4035034179688
 30
0.0000000000001072
 70
   192
  0
VERTEX
  5
703
  8
0
 10
-8.991300582885742
 20
-342.8529663085938
 30
0.0000000000001073
 70
   192
  0
VERTEX
  5
704
  8
0
 10
0.0
 20
-343.0
 30
-0.0000000000000013
 70
   192
  0
VERTEX
  5
705
  8
0
 10
0.0
 20
-342.8798828125
 30
51.8276252746582
 70
   192
  0
VERTEX
  5
706
  8
0
 10
0.0
 20
-342.1650085449219
 30
97.92420196533203
 70
   192
  0
VERTEX
  5
707
  8
0
 10
0.0
 20
-340.5350036621094
 30
139.1320037841797
 70
   192
  0
VERTEX
  5
708
  8
0
 10
0.0
 20
-337.7600708007812
 30
175.7670593261719
 70
   192
  0
VERTEX
  5
709
  8
0
 10
0.0
 20
-333.8389282226562
 30
208.1025848388672
 70
   192
  0
VERTEX
  5
70A
  8
0
 10
0.0
 20
-328.8561706542969
 30
236.5068054199219
 70
   192
  0
VERTEX
  5
70B
  8
0
 10
-35.93537521362305
 20
-328.2626647949219
 30
226.6195068359375
 70
   192
  0
VERTEX
  5
70C
  8
0
 10
-35.93537521362305
 20
-333.8084411621094
 30
189.2487945556641
 70
   192
  0
VERTEX
  5
70D
  8
0
 10
-35.93537521362305
 20
-337.2665100097656
 30
151.5321350097656
 70
   192
  0
VERTEX
  5
70E
  8
0
 10
-35.93537521362305
 20
-339.1929931640625
 30
113.683235168457
 70
   192
  0
VERTEX
  5
70F
  8
0
 10
-35.93537521362305
 20
-340.1265258789062
 30
75.70408630371094
 70
   192
  0
VERTEX
  5
710
  8
0
 10
-35.93537521362305
 20
-340.4638366699219
 30
37.74929046630859
 70
   192
  0
VERTEX
  5
711
  8
0
 10
0.0
 20
0.0
 30
0.0
 70
   128
 71
     1
 72
     2
 73
    99
  0
VERTEX
  5
712
  8
0
 10
0.0
 20
0.0
 30
0.0
 70
   128
 71
    99
 72
     2
 73
     3
  0
VERTEX
  5
713
  8
0
 10
0.0
 20
0.0
 30
0.0
 70
   128
 71
     4
 72
    99
 73
     3
  0
VERTEX
  5
714
  8
0
 10
0.0
 20
0.0
 30
0.0
 70
   128
 71
     4
 72
     5
 73
    99
  0
VERTEX
  5
715
  8
0
 10
0.0
 20
0.0
 30
0.0
 70
   128
 71
    99
 72
     5
 73
     6
  0
VERTEX
  5
716
  8
0
 10
0.0
 20
0.0
 30
0.0
 70
   128
 71
     7
 72
    99
 73
     6
  0
VERTEX
  5
717
  8
0
 10
0.0
 20
0.0
 30
0.0
 70
   128
 71
     7
 72
     8
 73
    99
  0
VERTEX
  5
718
  8
0
 10
0.0
 20
0.0
 30
0.0
 70
   128
 71
    99
 72
     8
 73
     9
  0
VERTEX
  5
719
  8
0
 10
0.0
 20
0.0
 30
0.0
 70
   128
 71
    10
 72
    99
 73
     9
  0
VERTEX
  5
71A
  8
0
 10
0.0
 20
0.0
 30
0.0
 70
   128
 71
    10
 72
   100
 73
    99
  0
VERTEX
  5
71B
  8
0
 10
0.0
 20
0.0
 30
0.0
 70
   128
 71
    10
 72
    11
 73
   100
  0
VERTEX
  5
71C
  8
0
 10
0.0
 20
0.0
 30
0.0
 70
   128
 71
   100
 72
    11
 73
    12
  0
VERTEX
  5
71D
  8
0
 10
0.0
 20
0.0
 30
0.0
 70
   128
 71
    13
 72
   100
 73
    12
  0
VERTEX
  5
71E
  8
0
 10
0.0
 20
0.0
 30
0.0
 70
   128
 71
    13
 72
    14
 73
   100
  0
VERTEX
  5
71F
  8
0
 10
0.0
 20
0.0
 30
0.0
 70
   128
 71
   100
 72
    14
 73
    15
  0
VERTEX
  5
720
  8
0
 10
0.0
 20
0.0
 30
0.0
 70
   128
 71
    16
 72
   100
 73
    15
  0
VERTEX
  5
721
  8
0
 10
0.0
 20
0.0
 30
0.0
 70
   128
 71
    16
 72
    17
 73
   100
  0
VERTEX
  5
722
  8
0
 10
0.0
 20
0.0
 30
0.0
 70
   128
 71
   100
 72
    17
 73
    18
  0
VERTEX
  5
723
  8
0
 10
0.0
 20
0.0
 30
0.0
 70
   128
 71
    19
 72
   100
 73
    18
  0
VERTEX
  5
724
  8
0
 10
0.0
 20
0.0
 30
0.0
 70
   128
 71
    19
 72
    20
 73
   100
  0
VERTEX
  5
725
  8
0
 10
0.0
 20
0.0
 30
0.0
 70
   128
 71
   100
 72
    20
 73
    21
  0
VERTEX
  5
726
  8
0
 10
0.0
 20
0.0
 30
0.0
 70
   128
 71
    22
 72
   100
 73
    21
  0
VERTEX
  5
727
  8
0
 10
0.0
 20
0.0
 30
0.0
 70
   128
 71
    22
 72
    23
 73
   100
  0
VERTEX
  5
728
  8
0
 10
0.0
 20
0.0
 30
0.0
 70
   128
 71
   100
 72
    23
 73
    24
  0
VERTEX
  5
729
  8
0
 10
0.0
 20
0.0
 30
0.0
 70
   128
 71
    25
 72
   100
 73
    24
  0
VERTEX
  5
72A
  8
0
 10
0.0
 20
0.0
 30
0.0
 70
   128
 71
    25
 72
    26
 73
   100
  0
VERTEX
  5
72B
  8
0
 10
0.0
 20
0.0
 30
0.0
 70
   128
 71
   100
 72
    26
 73
    27
  0
VERTEX
  5
72C
  8
0
 10
0.0
 20
0.0
 30
0.0
 70
   128
 71
    28
 72
   100
 73
    27
  0
VERTEX
  5
72D
  8
0
 10
0.0
 20
0.0
 30
0.0
 70
   128
 71
    28
 72
    29
 73
   100
  0
VERTEX
  5
72E
  8
0
 10
0.0
 20
0.0
 30
0.0
 70
   128
 71
   100
 72
    29
 73
    30
  0
VERTEX
  5
72F
  8
0
 10
0.0
 20
0.0
 30
0.0
 70
   128
 71
    31
 72
   100
 73
    30
  0
VERTEX
  5
730
  8
0
 10
0.0
 20
0.0
 30
0.0
 70
   128
 71
    31
 72
    32
 73
   100
  0
VERTEX
  5
731
  8
0
 10
0.0
 20
0.0
 30
0.0
 70
   128
 71
   100
 72
    32
 73
    33
  0
VERTEX
  5
732
  8
0
 10
0.0
 20
0.0
 30
0.0
 70
   128
 71
    34
 72
   100
 73
    33
  0
VERTEX
  5
733
  8
0
 10
0.0
 20
0.0
 30
0.0
 70
   128
 71
    34
 72
    35
 73
   100
  0
VERTEX
  5
734
  8
0
 10
0.0
 20
0.0
 30
0.0
 70
   128
 71
   100
 72
    35
 73
    36
  0
VERTEX
  5
735
  8
0
 10
0.0
 20
0.0
 30
0.0
 70
   128
 71
    37
 72
   100
 73
    36
  0
VERTEX
  5
736
  8
0
 10
0.0
 20
0.0
 30
0.0
 70
   128
 71
    37
 72
    38
 73
   100
  0
VERTEX
  5
737
  8
0
 10
0.0
 20
0.0
 30
0.0
 70
   128
 71
   100
 72
    38
 73
    39
  0
VERTEX
  5
738
  8
0
 10
0.0
 20
0.0
 30
0.0
 70
   128
 71
    40
 72
   100
 73
    39
  0
VERTEX
  5
739
  8
0
 10
0.0
 20
0.0
 30
0.0
 70
   128
 71
    40
 72
    41
 73
   100
  0
VERTEX
  5
73A
  8
0
 10
0.0
 20
0.0
 30
0.0
 70
   128
 71
   100
 72
    41
 73
    42
  0
VERTEX
  5
73B
  8
0
 10
0.0
 20
0.0
 30
0.0
 70
   128
 71
    43
 72
   100
 73
    42
  0
VERTEX
  5
73C
  8
0
 10
0.0
 20
0.0
 30
0.0
 70
   128
 71
    43
 72
    44
 73
   100
  0
VERTEX
  5
73D
  8
0
 10
0.0
 20
0.0
 30
0.0
 70
   128
 71
   100
 72
    44
 73
    45
  0
VERTEX
  5
73E
  8
0
 10
0.0
 20
0.0
 30
0.0
 70
   128
 71
    46
 72
   100
 73
    45
  0
VERTEX
  5
73F
  8
0
 10
0.0
 20
0.0
 30
0.0
 70
   128
 71
    46
 72
    47
 73
   100
  0
VERTEX
  5
740
  8
0
 10
0.0
 20
0.0
 30
0.0
 70
   128
 71
   100
 72
    47
 73
   101
  0
VERTEX
  5
741
  8
0
 10
0.0
 20
0.0
 30
0.0
 70
   128
 71
    98
 72
   101
 73
    97
  0
VERTEX
  5
742
  8
0
 10
0.0
 20
0.0
 30
0.0
 70
   128
 71
    98
 72
   100
 73
   101
  0
VERTEX
  5
743
  8
0
 10
0.0
 20
0.0
 30
0.0
 70
   128
 71
    98
 72
    99
 73
   100
  0
VERTEX
  5
744
  8
0
 10
0.0
 20
0.0
 30
0.0
 70
   128
 71
    47
 72
    48
 73
   101
  0
VERTEX
  5
745
  8
0
 10
0.0
 20
0.0
 30
0.0
 70
   128
 71
   101
 72
    48
 73
    49
  0
VERTEX
  5
746
  8
0
 10
0.0
 20
0.0
 30
0.0
 70
   128
 71
    50
 72
   101
 73
    49
  0
VERTEX
  5
747
  8
0
 10
0.0
 20
0.0
 30
0.0
 70
   128
 71
    50
 72
    51
 73
   101
  0
VERTEX
  5
748
  8
0
 10
0.0
 20
0.0
 30
0.0
 70
   128
 71
   101
 72
    51
 73
    52
  0
VERTEX
  5
749
  8
0
 10
0.0
 20
0.0
 30
0.0
 70
   128
 71
    53
 72
   101
 73
    52
  0
VERTEX
  5
74A
  8
0
 10
0.0
 20
0.0
 30
0.0
 70
   128
 71
    53
 72
    54
 73
   101
  0
VERTEX
  5
74B
  8
0
 10
0.0
 20
0.0
 30
0.0
 70
   128
 71
   101
 72
    54
 73
    55
  0
VERTEX
  5
74C
  8
0
 10
0.0
 20
0.0
 30
0.0
 70
   128
 71
    56
 72
   101
 73
    55
  0
VERTEX
  5
74D
  8
0
 10
0.0
 20
0.0
 30
0.0
 70
   128
 71
    56
 72
    57
 73
   101
  0
VERTEX
  5
74E
  8
0
 10
0.0
 20
0.0
 30
0.0
 70
   128
 71
   101
 72
    57
 73
   102
  0
VERTEX
  5
74F
  8
0
 10
0.0
 20
0.0
 30
0.0
 70
   128
 71
    97
 72
   102
 73
    96
  0
VERTEX
  5
750
  8
0
 10
0.0
 20
0.0
 30
0.0
 70
   128
 71
    97
 72
   101
 73
   102
  0
VERTEX
  5
751
  8
0
 10
0.0
 20
0.0
 30
0.0
 70
   128
 71
    57
 72
    58
 73
   102
  0
VERTEX
  5
752
  8
0
 10
0.0
 20
0.0
 30
0.0
 70
   128
 71
   102
 72
    58
 73
    59
  0
VERTEX
  5
753
  8
0
 10
0.0
 20
0.0
 30
0.0
 70
   128
 71
    60
 72
   102
 73
    59
  0
VERTEX
  5
754
  8
0
 10
0.0
 20
0.0
 30
0.0
 70
   128
 71
    60
 72
    61
 73
   102
  0
VERTEX
  5
755
  8
0
 10
0.0
 20
0.0
 30
0.0
 70
   128
 71
   102
 72
    61
 73
    62
  0
VERTEX
  5
756
  8
0
 10
0.0
 20
0.0
 30
0.0
 70
   128
 71
    63
 72
   102
 73
    62
  0
VERTEX
  5
757
  8
0
 10
0.0
 20
0.0
 30
0.0
 70
   128
 71
    63
 72
    64
 73
   102
  0
VERTEX
  5
758
  8
0
 10
0.0
 20
0.0
 30
0.0
 70
   128
 71
   102
 72
    64
 73
    65
  0
VERTEX
  5
759
  8
0
 10
0.0
 20
0.0
 30
0.0
 70
   128
 71
    66
 72
   102
 73
    65
  0
VERTEX
  5
75A
  8
0
 10
0.0
 20
0.0
 30
0.0
 70
   128
 71
    66
 72
    67
 73
   102
  0
VERTEX
  5
75B
  8
0
 10
0.0
 20
0.0
 30
0.0
 70
   128
 71
   102
 72
    67
 73
    68
  0
VERTEX
  5
75C
  8
0
 10
0.0
 20
0.0
 30
0.0
 70
   128
 71
    69
 72
   102
 73
    68
  0
VERTEX
  5
75D
  8
0
 10
0.0
 20
0.0
 30
0.0
 70
   128
 71
    69
 72
   103
 73
   102
  0
VERTEX
  5
75E
  8
0
 10
0.0
 20
0.0
 30
0.0
 70
   128
 71
    69
 72
    70
 73
   103
  0
VERTEX
  5
75F
  8
0
 10
0.0
 20
0.0
 30
0.0
 70
   128
 71
   103
 72
    70
 73
    71
  0
VERTEX
  5
760
  8
0
 10
0.0
 20
0.0
 30
0.0
 70
   128
 71
    72
 72
   103
 73
    71
  0
VERTEX
  5
761
  8
0
 10
0.0
 20
0.0
 30
0.0
 70
   128
 71
    72
 72
    73
 73
   103
  0
VERTEX
  5
762
  8
0
 10
0.0
 20
0.0
 30
0.0
 70
   128
 71
   103
 72
    73
 73
    74
  0
VERTEX
  5
763
  8
0
 10
0.0
 20
0.0
 30
0.0
 70
   128
 71
    75
 72
   103
 73
    74
  0
VERTEX
  5
764
  8
0
 10
0.0
 20
0.0
 30
0.0
 70
   128
 71
    75
 72
    76
 73
   103
  0
VERTEX
  5
765
  8
0
 10
0.0
 20
0.0
 30
0.0
 70
   128
 71
   103
 72
    76
 73
   104
  0
VERTEX
  5
766
  8
0
 10
0.0
 20
0.0
 30
0.0
 70
   128
 71
    95
 72
   104
 73
    94
  0
VERTEX
  5
767
  8
0
 10
0.0
 20
0.0
 30
0.0
 70
   128
 71
    95
 72
   103
 73
   104
  0
VERTEX
  5
768
  8
0
 10
0.0
 20
0.0
 30
0.0
 70
   128
 71
    95
 72
    96
 73
   103
  0
VERTEX
  5
769
  8
0
 10
0.0
 20
0.0
 30
0.0
 70
   128
 71
   103
 72
    96
 73
   102
  0
VERTEX
  5
76A
  8
0
 10
0.0
 20
0.0
 30
0.0
 70
   128
 71
    76
 72
    77
 73
   104
  0
VERTEX
  5
76B
  8
0
 10
0.0
 20
0.0
 30
0.0
 70
   128
 71
   104
 72
    77
 73
    78
  0
VERTEX
  5
76C
  8
0
 10
0.0
 20
0.0
 30
0.0
 70
   128
 71
    79
 72
   104
 73
    78
  0
VERTEX
  5
76D
  8
0
 10
0.0
 20
0.0
 30
0.0
 70
   128
 71
    79
 72
    80
 73
   104
  0
VERTEX
  5
76E
  8
0
 10
0.0
 20
0.0
 30
0.0
 70
   128
 71
   104
 72
    80
 73
   105
  0
VERTEX
  5
76F
  8
0
 10
0.0
 20
0.0
 30
0.0
 70
   128
 71
    94
 72
   105
 73
    93
  0
VERTEX
  5
770
  8
0
 10
0.0
 20
0.0
 30
0.0
 70
   128
 71
    94
 72
   104
 73
   105
  0
VERTEX
  5
771
  8
0
 10
0.0
 20
0.0
 30
0.0
 70
   128
 71
    80
 72
    81
 73
   105
  0
VERTEX
  5
772
  8
0
 10
0.0
 20
0.0
 30
0.0
 70
   128
 71
   105
 72
    81
 73
    82
  0
VERTEX
  5
773
  8
0
 10
0.0
 20
0.0
 30
0.0
 70
   128
 71
    83
 72
   105
 73
    82
  0
VERTEX
  5
774
  8
0
 10
0.0
 20
0.0
 30
0.0
 70
   128
 71
    83
 72
    87
 73
   105
  0
VERTEX
  5
775
  8
0
 10
0.0
 20
0.0
 30
0.0
 70
   128
 71
    83
 72
    84
 73
    87
  0
VERTEX
  5
776
  8
0
 10
0.0
 20
0.0
 30
0.0
 70
   128
 71
    87
 72
    84
 73
    86
  0
VERTEX
  5
777
  8
0
 10
0.0
 20
0.0
 30
0.0
 70
   128
 71
    86
 72
    84
 73
    85
  0
VERTEX
  5
778
  8
0
 10
0.0
 20
0.0
 30
0.0
 70
   128
 71
    87
 72
    88
 73
   105
  0
VERTEX
  5
779
  8
0
 10
0.0
 20
0.0
 30
0.0
 70
   128
 71
   105
 72
    88
 73
    89
  0
VERTEX
  5
77A
  8
0
 10
0.0
 20
0.0
 30
0.0
 70
   128
 71
    90
 72
   105
 73
    89
  0
VERTEX
  5
77B
  8
0
 10
0.0
 20
0.0
 30
0.0
 70
   128
 71
    90
 72
    91
 73
   105
  0
VERTEX
  5
77C
  8
0
 10
0.0
 20
0.0
 30
0.0
 70
   128
 71
   105
 72
    91
 73
    92
  0
VERTEX
  5
77D
  8
0
 10
0.0
 20
0.0
 30
0.0
 70
   128
 71
    93
 72
   105
 73
    92
  0
SEQEND
  5
77E
  8
LAYER1
 62
     7
  0
POLYLINE
  5
77F
  8
LAYER1
 62
     7
 66
     1
 10
0.0
 20
0.0
 30
0.0
 70
    64
 71
   242
 72
   258
  0
VERTEX
  5
780
  8
0
 10
-0.0001185354194604
 20
-312.0359497070312
 30
271.6079406738281
 70
   192
  0
VERTEX
  5
781
  8
0
 10
-5.085226058959961
 20
-312.0024719238281
 30
271.5577392578125
 70
   192
  0
VERTEX
  5
782
  8
0
 10
-9.713741302490234
 20
-311.922607421875
 30
271.4043273925781
 70
   192
  0
VERTEX
  5
783
  8
0
 10
-13.94484424591064
 20
-311.81494140625
 30
271.1492309570312
 70
   192
  0
VERTEX
  5
784
  8
0
 10
-17.79520988464355
 20
-311.69482421875
 30
270.798583984375
 70
   192
  0
VERTEX
  5
785
  8
0
 10
-21.29440307617188
 20
-311.5726013183594
 30
270.3616333007812
 70
   192
  0
VERTEX
  5
786
  8
0
 10
-24.48415756225586
 20
-311.4548645019531
 30
269.8469543457031
 70
   192
  0
VERTEX
  5
787
  8
0
 10
-27.40483856201172
 20
-311.3457641601562
 30
269.2608032226562
 70
   192
  0
VERTEX
  5
788
  8
0
 10
-30.08610916137695
 20
-311.2476806640625
 30
268.6095275878906
 70
   192
  0
VERTEX
  5
789
  8
0
 10
-32.52759170532227
 20
-311.1619567871094
 30
267.9078063964844
 70
   192
  0
VERTEX
  5
78A
  8
0
 10
-34.72562408447266
 20
-311.0889587402344
 30
267.1756591796875
 70
   192
  0
VERTEX
  5
78B
  8
0
 10
-36.71200180053711
 20
-311.02734375
 30
266.4214172363281
 70
   192
  0
VERTEX
  5
78C
  8
0
 10
-38.54084777832031
 20
-310.9748229980469
 30
265.6393737792969
 70
   192
  0
VERTEX
  5
78D
  8
0
 10
-40.24618911743164
 20
-310.9295959472656
 30
264.8253784179688
 70
   192
  0
VERTEX
  5
78E
  8
0
 10
-41.83058166503906
 20
-310.8909301757812
 30
263.9874572753906
 70
   192
  0
VERTEX
  5
78F
  8
0
 10
-43.27429580688477
 20
-310.8591918945312
 30
263.1480102539062
 70
   192
  0
VERTEX
  5
790
  8
0
 10
-44.55004119873047
 20
-310.8346252441406
 30
262.3399963378906
 70
   192
  0
VERTEX
  5
791
  8
0
 10
-45.64954376220703
 20
-310.8167114257812
 30
261.5894775390625
 70
   192
  0
VERTEX
  5
792
  8
0
 10
-46.60679244995117
 20
-310.8038330078125
 30
260.8921508789062
 70
   192
  0
VERTEX
  5
793
  8
0
 10
-47.47746658325195
 20
-310.7947082519531
 30
260.2195129394531
 70
   192
  0
VERTEX
  5
794
  8
0
 10
-48.30509185791016
 20
-310.7887878417969
 30
259.5436401367188
 70
   192
  0
VERTEX
  5
795
  8
0
 10
-49.10962295532227
 20
-310.7860412597656
 30
258.8500061035156
 70
   192
  0
VERTEX
  5
796
  8
0
 10
-49.8945198059082
 20
-310.7867126464844
 30
258.1359558105469
 70
   192
  0
VERTEX
  5
797
  8
0
 10
-50.66091537475586
 20
-310.7912292480469
 30
257.4006652832031
 70
   192
  0
VERTEX
  5
798
  8
0
 10
-51.41164398193359
 20
-310.8003234863281
 30
256.6417846679688
 70
   192
  0
VERTEX
  5
799
  8
0
 10
-52.15401840209961
 20
-310.8142395019531
 30
255.8523559570312
 70
   192
  0
VERTEX
  5
79A
  8
0
 10
-52.88876724243164
 20
-310.8331604003906
 30
255.0311431884766
 70
   192
  0
VERTEX
  5
79B
  8
0
 10
-53.60903930664062
 20
-310.85693359375
 30
254.1858825683594
 70
   192
  0
VERTEX
  5
79C
  8
0
 10
-54.31241226196289
 20
-310.8854370117188
 30
253.3201751708984
 70
   192
  0
VERTEX
  5
79D
  8
0
 10
-55.01209259033203
 20
-310.9194030761719
 30
252.4174652099609
 70
   192
  0
VERTEX
  5
79E
  8
0
 10
-55.73114776611328
 20
-310.9606628417969
 30
251.4444580078125
 70
   192
  0
VERTEX
  5
79F
  8
0
 10
-56.49019241333008
 20
-311.0116882324219
 30
250.3652191162109
 70
   192
  0
VERTEX
  5
7A0
  8
0
 10
-57.2989616394043
 20
-311.0749206542969
 30
249.1534271240234
 70
   192
  0
VERTEX
  5
7A1
  8
0
 10
-58.15529251098633
 20
-311.1524353027344
 30
247.7972106933594
 70
   192
  0
VERTEX
  5
7A2
  8
0
 10
-59.05043029785156
 20
-311.2453002929688
 30
246.2945861816406
 70
   192
  0
VERTEX
  5
7A3
  8
0
 10
-59.97264862060547
 20
-311.3539428710938
 30
244.6495361328125
 70
   192
  0
VERTEX
  5
7A4
  8
0
 10
-60.90918731689453
 20
-311.4783325195312
 30
242.8704528808594
 70
   192
  0
VERTEX
  5
7A5
  8
0
 10
-61.85109329223633
 20
-311.6185302734375
 30
240.9617919921875
 70
   192
  0
VERTEX
  5
7A6
  8
0
 10
-62.79803848266602
 20
-311.7755737304688
 30
238.9119262695312
 70
   192
  0
VERTEX
  5
7A7
  8
0
 10
-63.75715637207031
 20
-311.9518127441406
 30
236.68994140625
 70
   192
  0
VERTEX
  5
7A8
  8
0
 10
-64.73426818847656
 20
-312.1500244140625
 30
234.2607421875
 70
   192
  0
VERTEX
  5
7A9
  8
0
 10
-65.7285385131836
 20
-312.3721313476562
 30
231.5992889404297
 70
   192
  0
VERTEX
  5
7AA
  8
0
 10
-66.7347183227539
 20
-312.6189880371094
 30
228.6882934570312
 70
   192
  0
VERTEX
  5
7AB
  8
0
 10
-67.74816131591797
 20
-312.8918151855469
 30
225.5046234130859
 70
   192
  0
VERTEX
  5
7AC
  8
0
 10
-68.76630401611328
 20
-313.1930236816406
 30
222.0103607177734
 70
   192
  0
VERTEX
  5
7AD
  8
0
 10
-69.78659057617188
 20
-313.5266723632812
 30
218.1515350341797
 70
   192
  0
VERTEX
  5
7AE
  8
0
 10
-70.80217742919922
 20
-313.8984985351562
 30
213.8615112304688
 70
   192
  0
VERTEX
  5
7AF
  8
0
 10
-71.78987121582031
 20
-314.3126831054688
 30
209.115478515625
 70
   192
  0
VERTEX
  5
7B0
  8
0
 10
-72.7043228149414
 20
-314.7611389160156
 30
204.0330810546875
 70
   192
  0
VERTEX
  5
7B1
  8
0
 10
-73.49757385253906
 20
-315.2178344726562
 30
198.8859100341797
 70
   192
  0
VERTEX
  5
7B2
  8
0
 10
-74.14356994628906
 20
-315.65185546875
 30
193.9907836914062
 70
   192
  0
VERTEX
  5
7B3
  8
0
 10
-74.65412139892578
 20
-316.0442504882812
 30
189.5266418457031
 70
   192
  0
VERTEX
  5
7B4
  8
0
 10
-75.05730438232422
 20
-316.3917236328125
 30
185.5184173583984
 70
   192
  0
VERTEX
  5
7B5
  8
0
 10
-75.3812484741211
 20
-316.6965942382812
 30
181.9317932128906
 70
   192
  0
VERTEX
  5
7B6
  8
0
 10
-75.64957427978516
 20
-316.9664916992188
 30
178.6787567138672
 70
   192
  0
VERTEX
  5
7B7
  8
0
 10
-75.8835678100586
 20
-317.2134094238281
 30
175.6191101074219
 70
   192
  0
VERTEX
  5
7B8
  8
0
 10
-76.09944915771484
 20
-317.4471740722656
 30
172.6249389648438
 70
   192
  0
VERTEX
  5
7B9
  8
0
 10
-76.3056411743164
 20
-317.6715393066406
 30
169.6357879638672
 70
   192
  0
VERTEX
  5
7BA
  8
0
 10
-76.50521087646484
 20
-317.8862915039062
 30
166.6453399658203
 70
   192
  0
VERTEX
  5
7BB
  8
0
 10
-76.69877624511719
 20
-318.0911254882812
 30
163.6581420898438
 70
   192
  0
VERTEX
  5
7BC
  8
0
 10
-76.88697814941406
 20
-318.2868347167969
 30
160.6667938232422
 70
   192
  0
VERTEX
  5
7BD
  8
0
 10
-77.0711441040039
 20
-318.4749755859375
 30
157.6508636474609
 70
   192
  0
VERTEX
  5
7BE
  8
0
 10
-77.25013732910156
 20
-318.6546325683594
 30
154.6272583007812
 70
   192
  0
VERTEX
  5
7BF
  8
0
 10
-77.421142578125
 20
-318.8233642578125
 30
151.6453857421875
 70
   192
  0
VERTEX
  5
7C0
  8
0
 10
-77.58660888671875
 20
-318.98388671875
 30
148.6656036376953
 70
   192
  0
VERTEX
  5
7C1
  8
0
 10
-77.75340270996094
 20
-319.1428833007812
 30
145.5597229003906
 70
   192
  0
VERTEX
  5
7C2
  8
0
 10
-77.92586517333984
 20
-319.3042602539062
 30
142.2296600341797
 70
   192
  0
VERTEX
  5
7C3
  8
0
 10
-78.10459899902344
 20
-319.4681701660156
 30
138.6378326416016
 70
   192
  0
VERTEX
  5
7C4
  8
0
 10
-78.2890853881836
 20
-319.6338195800781
 30
134.7618865966797
 70
   192
  0
VERTEX
  5
7C5
  8
0
 10
-78.47866821289062
 20
-319.800537109375
 30
130.5719909667969
 70
   192
  0
VERTEX
  5
7C6
  8
0
 10
-78.67259979248047
 20
-319.9676513671875
 30
126.0292282104492
 70
   192
  0
VERTEX
  5
7C7
  8
0
 10
-78.86984252929688
 20
-320.1343994140625
 30
121.0880813598633
 70
   192
  0
VERTEX
  5
7C8
  8
0
 10
-79.06875610351562
 20
-320.2997131347656
 30
115.7018127441406
 70
   192
  0
VERTEX
  5
7C9
  8
0
 10
-79.266845703125
 20
-320.4621276855469
 30
109.8284072875977
 70
   192
  0
VERTEX
  5
7CA
  8
0
 10
-79.46123504638672
 20
-320.6197509765625
 30
103.432243347168
 70
   192
  0
VERTEX
  5
7CB
  8
0
 10
-79.64897918701172
 20
-320.7709350585938
 30
96.47386932373047
 70
   192
  0
VERTEX
  5
7CC
  8
0
 10
-79.82748413085938
 20
-320.9140930175781
 30
88.88776397705078
 70
   192
  0
VERTEX
  5
7CD
  8
0
 10
-79.99430847167969
 20
-321.0473022460938
 30
80.56892395019531
 70
   192
  0
VERTEX
  5
7CE
  8
0
 10
-80.14749145507812
 20
-321.1676635742188
 30
71.39183807373047
 70
   192
  0
VERTEX
  5
7CF
  8
0
 10
-80.28584289550781
 20
-321.2713623046875
 30
61.2318000793457
 70
   192
  0
VERTEX
  5
7D0
  8
0
 10
-80.40950012207031
 20
-321.35400390625
 30
49.98081970214844
 70
   192
  0
VERTEX
  5
7D1
  8
0
 10
-80.52032470703125
 20
-321.41162109375
 30
37.63166809082031
 70
   192
  0
VERTEX
  5
7D2
  8
0
 10
-80.6231460571289
 20
-321.4419555664062
 30
24.52660179138184
 70
   192
  0
VERTEX
  5
7D3
  8
0
 10
-80.7234878540039
 20
-321.4485778808594
 30
11.67290306091309
 70
   192
  0
VERTEX
  5
7D4
  8
0
 10
-80.82615661621094
 20
-321.4414367675781
 30
-0.0000000755752936
 70
   192
  0
VERTEX
  5
7D5
  8
0
 10
-80.2870101928711
 20
-323.3595886230469
 30
0.0000000000001005
 70
   192
  0
VERTEX
  5
7D6
  8
0
 10
-79.49980163574219
 20
-325.1865844726562
 30
0.0000000000001011
 70
   192
  0
VERTEX
  5
7D7
  8
0
 10
-78.4793701171875
 20
-326.8910217285156
 30
0.0000000000001017
 70
   192
  0
VERTEX
  5
7D8
  8
0
 10
-77.23745727539062
 20
-328.4513854980469
 30
0.0000000000001023
 70
   192
  0
VERTEX
  5
7D9
  8
0
 10
-75.80089569091797
 20
-329.8320922851562
 30
0.0000000000001028
 70
   192
  0
VERTEX
  5
7DA
  8
0
 10
-74.20057678222656
 20
-331.0060424804688
 30
0.0000000000001032
 70
   192
  0
VERTEX
  5
7DB
  8
0
 10
-72.44796752929688
 20
-331.9637145996094
 30
0.0000000000001035
 70
   192
  0
VERTEX
  5
7DC
  8
0
 10
-70.59349060058594
 20
-332.6770629882812
 30
-0.0000000008345323
 70
   192
  0
VERTEX
  5
7DD
  8
0
 10
-70.47803497314453
 20
-332.7118530273438
 30
11.70191192626953
 70
   192
  0
VERTEX
  5
7DE
  8
0
 10
-70.36424255371094
 20
-332.7362976074219
 30
24.58451843261719
 70
   192
  0
VERTEX
  5
7DF
  8
0
 10
-70.24752807617188
 20
-332.7390747070312
 30
37.69812774658203
 70
   192
  0
VERTEX
  5
7E0
  8
0
 10
-70.12244415283203
 20
-332.7145690917969
 30
50.0444450378418
 70
   192
  0
VERTEX
  5
7E1
  8
0
 10
-69.98419189453125
 20
-332.6639709472656
 30
61.286865234375
 70
   192
  0
VERTEX
  5
7E2
  8
0
 10
-69.83084869384766
 20
-332.5909729003906
 30
71.43609619140625
 70
   192
  0
VERTEX
  5
7E3
  8
0
 10
-69.66233825683594
 20
-332.4999084472656
 30
80.60050964355469
 70
   192
  0
VERTEX
  5
7E4
  8
0
 10
-69.47994995117188
 20
-332.3944396972656
 30
88.90631866455078
 70
   192
  0
VERTEX
  5
7E5
  8
0
 10
-69.28573608398438
 20
-332.27734375
 30
96.48087310791016
 70
   192
  0
VERTEX
  5
7E6
  8
0
 10
-69.0822525024414
 20
-332.1506652832031
 30
103.4295120239258
 70
   192
  0
VERTEX
  5
7E7
  8
0
 10
-68.87226104736328
 20
-332.0159606933594
 30
109.8185424804688
 70
   192
  0
VERTEX
  5
7E8
  8
0
 10
-68.6588363647461
 20
-331.874755859375
 30
115.6873092651367
 70
   192
  0
VERTEX
  5
7E9
  8
0
 10
-68.44499969482422
 20
-331.7288818359375
 30
121.071907043457
 70
   192
  0
VERTEX
  5
7EA
  8
0
 10
-68.23332977294922
 20
-331.579833984375
 30
126.0144500732422
 70
   192
  0
VERTEX
  5
7EB
  8
0
 10
-68.0255126953125
 20
-331.4287719726562
 30
130.5611877441406
 70
   192
  0
VERTEX
  5
7EC
  8
0
 10
-67.82257843017578
 20
-331.2766418457031
 30
134.7572784423828
 70
   192
  0
VERTEX
  5
7ED
  8
0
 10
-67.62528991699219
 20
-331.1241149902344
 30
138.6413726806641
 70
   192
  0
VERTEX
  5
7EE
  8
0
 10
-67.43429565429688
 20
-330.9721374511719
 30
142.2425384521484
 70
   192
  0
VERTEX
  5
7EF
  8
0
 10
-67.25019073486328
 20
-330.8216552734375
 30
145.5822448730469
 70
   192
  0
VERTEX
  5
7F0
  8
0
 10
-67.07222747802734
 20
-330.6725769042969
 30
148.6986083984375
 70
   192
  0
VERTEX
  5
7F1
  8
0
 10
-66.89571380615234
 20
-330.5213012695312
 30
151.6906433105469
 70
   192
  0
VERTEX
  5
7F2
  8
0
 10
-66.71337890625
 20
-330.3615417480469
 30
154.6864471435547
 70
   192
  0
VERTEX
  5
7F3
  8
0
 10
-66.52264404296875
 20
-330.1907348632812
 30
157.7248382568359
 70
   192
  0
VERTEX
  5
7F4
  8
0
 10
-66.32653045654297
 20
-330.0111999511719
 30
160.7564697265625
 70
   192
  0
VERTEX
  5
7F5
  8
0
 10
-66.12620544433594
 20
-329.82373046875
 30
163.7644348144531
 70
   192
  0
VERTEX
  5
7F6
  8
0
 10
-65.92027282714844
 20
-329.626953125
 30
166.7690734863281
 70
   192
  0
VERTEX
  5
7F7
  8
0
 10
-65.7081527709961
 20
-329.4201354980469
 30
169.7765350341797
 70
   192
  0
VERTEX
  5
7F8
  8
0
 10
-65.48967742919922
 20
-329.2040710449219
 30
172.7756042480469
 70
   192
  0
VERTEX
  5
7F9
  8
0
 10
-65.26216888427734
 20
-328.9793090820312
 30
175.766357421875
 70
   192
  0
VERTEX
  5
7FA
  8
0
 10
-65.01725006103516
 20
-328.7421264648438
 30
178.8057250976562
 70
   192
  0
VERTEX
  5
7FB
  8
0
 10
-64.73831176757812
 20
-328.4826049804688
 30
182.0206756591797
 70
   192
  0
VERTEX
  5
7FC
  8
0
 10
-64.4036865234375
 20
-328.1883239746094
 30
185.5496673583984
 70
   192
  0
VERTEX
  5
7FD
  8
0
 10
-63.99089050292969
 20
-327.8511047363281
 30
189.4682464599609
 70
   192
  0
VERTEX
  5
7FE
  8
0
 10
-63.4730224609375
 20
-327.4671630859375
 30
193.8030242919922
 70
   192
  0
VERTEX
  5
7FF
  8
0
 10
-62.82427215576172
 20
-327.037841796875
 30
198.5215759277344
 70
   192
  0
VERTEX
  5
800
  8
0
 10
-62.03678894042969
 20
-326.5805053710938
 30
203.4378204345703
 70
   192
  0
VERTEX
  5
801
  8
0
 10
-61.13816070556641
 20
-326.1246032714844
 30
208.2536163330078
 70
   192
  0
VERTEX
  5
802
  8
0
 10
-60.17770385742188
 20
-325.6962585449219
 30
212.715576171875
 70
   192
  0
VERTEX
  5
803
  8
0
 10
-59.19643020629883
 20
-325.3047180175781
 30
216.7339324951172
 70
   192
  0
VERTEX
  5
804
  8
0
 10
-58.21596527099609
 20
-324.9474182128906
 30
220.3375701904297
 70
   192
  0
VERTEX
  5
805
  8
0
 10
-57.24467849731445
 20
-324.6195373535156
 30
223.5845794677734
 70
   192
  0
VERTEX
  5
806
  8
0
 10
-56.2867546081543
 20
-324.31787109375
 30
226.5221405029297
 70
   192
  0
VERTEX
  5
807
  8
0
 10
-55.3457145690918
 20
-324.0404052734375
 30
229.1852569580078
 70
   192
  0
VERTEX
  5
808
  8
0
 10
-54.42691802978516
 20
-323.7864379882812
 30
231.5956726074219
 70
   192
  0
VERTEX
  5
809
  8
0
 10
-53.53585052490234
 20
-323.5554809570312
 30
233.7707672119141
 70
   192
  0
VERTEX
  5
80A
  8
0
 10
-52.67311859130859
 20
-323.3458557128906
 30
235.7365112304688
 70
   192
  0
VERTEX
  5
80B
  8
0
 10
-51.83368301391602
 20
-323.1549072265625
 30
237.5265350341797
 70
   192
  0
VERTEX
  5
80C
  8
0
 10
-51.01155471801758
 20
-322.9801940917969
 30
239.1700134277344
 70
   192
  0
VERTEX
  5
80D
  8
0
 10
-50.20663070678711
 20
-322.8207092285156
 30
240.6805419921875
 70
   192
  0
VERTEX
  5
80E
  8
0
 10
-49.42651748657227
 20
-322.6768798828125
 30
242.0569610595703
 70
   192
  0
VERTEX
  5
80F
  8
0
 10
-48.68158340454102
 20
-322.54931640625
 30
243.2953186035156
 70
   192
  0
VERTEX
  5
810
  8
0
 10
-47.98157501220703
 20
-322.4380493164062
 30
244.3944854736328
 70
   192
  0
VERTEX
  5
811
  8
0
 10
-47.33314514160156
 20
-322.3424987792969
 30
245.3587646484375
 70
   192
  0
VERTEX
  5
812
  8
0
 10
-46.7357292175293
 20
-322.2608642578125
 30
246.20263671875
 70
   192
  0
VERTEX
  5
813
  8
0
 10
-46.17962265014648
 20
-322.1905212402344
 30
246.9507904052734
 70
   192
  0
VERTEX
  5
814
  8
0
 10
-45.64760208129883
 20
-322.1282043457031
 30
247.6338195800781
 70
   192
  0
VERTEX
  5
815
  8
0
 10
-45.12066268920898
 20
-322.0713195800781
 30
248.2795867919922
 70
   192
  0
VERTEX
  5
816
  8
0
 10
-44.5888557434082
 20
-322.0187072753906
 30
248.9013214111328
 70
   192
  0
VERTEX
  5
817
  8
0
 10
-44.05495071411133
 20
-321.970703125
 30
249.4961395263672
 70
   192
  0
VERTEX
  5
818
  8
0
 10
-43.52481460571289
 20
-321.9277648925781
 30
250.058349609375
 70
   192
  0
VERTEX
  5
819
  8
0
 10
-42.99863052368164
 20
-321.8898010253906
 30
250.5889434814453
 70
   192
  0
VERTEX
  5
81A
  8
0
 10
-42.47175216674805
 20
-321.8564758300781
 30
251.0933685302734
 70
   192
  0
VERTEX
  5
81B
  8
0
 10
-41.93555068969727
 20
-321.8272399902344
 30
251.5800170898438
 70
   192
  0
VERTEX
  5
81C
  8
0
 10
-41.38623046875
 20
-321.8018798828125
 30
252.0523529052734
 70
   192
  0
VERTEX
  5
81D
  8
0
 10
-40.82013320922852
 20
-321.7802734375
 30
252.5132141113281
 70
   192
  0
VERTEX
  5
81E
  8
0
 10
-40.22206497192383
 20
-321.7619934082031
 30
252.9736022949219
 70
   192
  0
VERTEX
  5
81F
  8
0
 10
-39.55965042114258
 20
-321.7467651367188
 30
253.4541320800781
 70
   192
  0
VERTEX
  5
820
  8
0
 10
-38.79453277587891
 20
-321.7350463867188
 30
253.9738159179688
 70
   192
  0
VERTEX
  5
821
  8
0
 10
-37.90276718139648
 20
-321.7287292480469
 30
254.5353088378906
 70
   192
  0
VERTEX
  5
822
  8
0
 10
-36.88359832763672
 20
-321.7300415039062
 30
255.1236267089844
 70
   192
  0
VERTEX
  5
823
  8
0
 10
-35.74631500244141
 20
-321.7409057617188
 30
255.7197418212891
 70
   192
  0
VERTEX
  5
824
  8
0
 10
-34.49587249755859
 20
-321.7623901367188
 30
256.3102416992188
 70
   192
  0
VERTEX
  5
825
  8
0
 10
-33.12174606323242
 20
-321.7953186035156
 30
256.8906555175781
 70
   192
  0
VERTEX
  5
826
  8
0
 10
-31.58811187744141
 20
-321.8410034179688
 30
257.4649658203125
 70
   192
  0
VERTEX
  5
827
  8
0
 10
-29.84342765808105
 20
-321.9013671875
 30
258.0374755859375
 70
   192
  0
VERTEX
  5
828
  8
0
 10
-27.85316276550293
 20
-321.9776916503906
 30
258.6004028320312
 70
   192
  0
VERTEX
  5
829
  8
0
 10
-25.60789680480957
 20
-322.0695495605469
 30
259.1365966796875
 70
   192
  0
VERTEX
  5
82A
  8
0
 10
-23.08849906921387
 20
-322.1751708984375
 30
259.6334838867188
 70
   192
  0
VERTEX
  5
82B
  8
0
 10
-20.25926399230957
 20
-322.2916564941406
 30
260.0821533203125
 70
   192
  0
VERTEX
  5
82C
  8
0
 10
-17.07821273803711
 20
-322.4142456054688
 30
260.4727172851562
 70
   192
  0
VERTEX
  5
82D
  8
0
 10
-13.49996471405029
 20
-322.5357360839844
 30
260.7933044433594
 70
   192
  0
VERTEX
  5
82E
  8
0
 10
-9.484354972839355
 20
-322.6450500488281
 30
261.0316467285156
 70
   192
  0
VERTEX
  5
82F
  8
0
 10
-5.005630493164062
 20
-322.726318359375
 30
261.1779174804688
 70
   192
  0
VERTEX
  5
830
  8
0
 10
-0.0001139735613833
 20
-322.7590942382812
 30
261.227294921875
 70
   192
  0
VERTEX
  5
831
  8
0
 10
-0.0004617678932846
 20
-321.8240966796875
 30
263.6538391113281
 70
   192
  0
VERTEX
  5
832
  8
0
 10
-0.0004668053879868
 20
-320.4841003417969
 30
265.8825378417969
 70
   192
  0
VERTEX
  5
833
  8
0
 10
-0.0004709063505288
 20
-318.7794189453125
 30
267.8463745117188
 70
   192
  0
VERTEX
  5
834
  8
0
 10
-0.0004739983996842
 20
-316.7612915039062
 30
269.486328125
 70
   192
  0
VERTEX
  5
835
  8
0
 10
-0.0004760390147567
 20
-314.4903259277344
 30
270.7532043457031
 70
   192
  0
VERTEX
  5
836
  8
0
 10
-11.25925350189209
 20
-313.8694152832031
 30
270.6719665527344
 70
   192
  0
VERTEX
  5
837
  8
0
 10
-11.24626445770264
 20
-316.8460083007812
 30
269.0404357910156
 70
   192
  0
VERTEX
  5
838
  8
0
 10
-11.18584060668945
 20
-319.4099731445312
 30
266.7494812011719
 70
   192
  0
VERTEX
  5
839
  8
0
 10
-11.08264255523682
 20
-321.36376953125
 30
263.9757385253906
 70
   192
  0
VERTEX
  5
83A
  8
0
 10
-30.34864044189453
 20
-313.1372680664062
 30
267.9050903320312
 70
   192
  0
VERTEX
  5
83B
  8
0
 10
-30.03733825683594
 20
-316.1282043457031
 30
266.3306884765625
 70
   192
  0
VERTEX
  5
83C
  8
0
 10
-29.5377140045166
 20
-318.7130432128906
 30
264.118408203125
 70
   192
  0
VERTEX
  5
83D
  8
0
 10
-28.88827514648438
 20
-320.6925354003906
 30
261.4388122558594
 70
   192
  0
VERTEX
  5
83E
  8
0
 10
-42.38131332397461
 20
-312.8054809570312
 30
262.9819030761719
 70
   192
  0
VERTEX
  5
83F
  8
0
 10
-41.57354736328125
 20
-315.81298828125
 30
261.6317749023438
 70
   192
  0
VERTEX
  5
840
  8
0
 10
-40.42540740966797
 20
-318.4202575683594
 30
259.7061462402344
 70
   192
  0
VERTEX
  5
841
  8
0
 10
-39.0254020690918
 20
-320.4263000488281
 30
257.3533935546875
 70
   192
  0
VERTEX
  5
842
  8
0
 10
-51.18215942382812
 20
-313.0726623535156
 30
255.8939056396484
 70
   192
  0
VERTEX
  5
843
  8
0
 10
-49.8984489440918
 20
-316.0697021484375
 30
254.9506988525391
 70
   192
  0
VERTEX
  5
844
  8
0
 10
-48.14023208618164
 20
-318.6650085449219
 30
253.5376434326172
 70
   192
  0
VERTEX
  5
845
  8
0
 10
-46.04304122924805
 20
-320.6585388183594
 30
251.763671875
 70
   192
  0
VERTEX
  5
846
  8
0
 10
-58.14459609985352
 20
-313.9028930664062
 30
246.2760009765625
 70
   192
  0
VERTEX
  5
847
  8
0
 10
-56.60817718505859
 20
-316.8770141601562
 30
245.7154235839844
 70
   192
  0
VERTEX
  5
848
  8
0
 10
-54.51464080810547
 20
-319.4440307617188
 30
244.7926330566406
 70
   192
  0
VERTEX
  5
849
  8
0
 10
-52.02537155151367
 20
-321.4060668945312
 30
243.5787811279297
 70
   192
  0
VERTEX
  5
84A
  8
0
 10
-64.29932403564453
 20
-315.2138061523438
 30
232.9720916748047
 70
   192
  0
VERTEX
  5
84B
  8
0
 10
-62.66591262817383
 20
-318.1756591796875
 30
232.6898498535156
 70
   192
  0
VERTEX
  5
84C
  8
0
 10
-60.42693328857422
 20
-320.7267761230469
 30
232.1394958496094
 70
   192
  0
VERTEX
  5
84D
  8
0
 10
-57.75497055053711
 20
-322.6705627441406
 30
231.3634643554688
 70
   192
  0
VERTEX
  5
84E
  8
0
 10
-69.70984649658203
 20
-316.9462890625
 30
214.6297302246094
 70
   192
  0
VERTEX
  5
84F
  8
0
 10
-68.05414581298828
 20
-319.9082641601562
 30
214.5517120361328
 70
   192
  0
VERTEX
  5
850
  8
0
 10
-65.76268005371094
 20
-322.4587707519531
 30
214.2898559570312
 70
   192
  0
VERTEX
  5
851
  8
0
 10
-63.01208114624023
 20
-324.4012451171875
 30
213.8643646240234
 70
   192
  0
VERTEX
  5
852
  8
0
 10
-73.39014434814453
 20
-318.8879089355469
 30
192.7581176757812
 70
   192
  0
VERTEX
  5
853
  8
0
 10
-71.73992156982422
 20
-321.8529052734375
 30
192.8339691162109
 70
   192
  0
VERTEX
  5
854
  8
0
 10
-69.43753051757812
 20
-324.4066467285156
 30
192.7964324951172
 70
   192
  0
VERTEX
  5
855
  8
0
 10
-66.66045379638672
 20
-326.3522644042969
 30
192.6484069824219
 70
   192
  0
VERTEX
  5
856
  8
0
 10
-75.4884033203125
 20
-320.7422790527344
 30
168.8719482421875
 70
   192
  0
VERTEX
  5
857
  8
0
 10
-73.85594940185547
 20
-323.71630859375
 30
168.9710540771484
 70
   192
  0
VERTEX
  5
858
  8
0
 10
-71.56488800048828
 20
-326.2802429199219
 30
168.9968719482422
 70
   192
  0
VERTEX
  5
859
  8
0
 10
-68.79181671142578
 20
-328.2364807128906
 30
168.9474029541016
 70
   192
  0
VERTEX
  5
85A
  8
0
 10
-77.00379180908203
 20
-322.0971984863281
 30
144.0275726318359
 70
   192
  0
VERTEX
  5
85B
  8
0
 10
-75.39036560058594
 20
-325.0827941894531
 30
144.0802764892578
 70
   192
  0
VERTEX
  5
85C
  8
0
 10
-73.11489868164062
 20
-327.6607055664062
 30
144.0796661376953
 70
   192
  0
VERTEX
  5
85D
  8
0
 10
-70.3528060913086
 20
-329.6322631835938
 30
144.0257720947266
 70
   192
  0
VERTEX
  5
85E
  8
0
 10
-78.1915283203125
 20
-322.9705200195312
 30
118.0660400390625
 70
   192
  0
VERTEX
  5
85F
  8
0
 10
-76.59313201904297
 20
-325.9645690917969
 30
118.0887680053711
 70
   192
  0
VERTEX
  5
860
  8
0
 10
-74.33004760742188
 20
-328.5533447265625
 30
118.0755844116211
 70
   192
  0
VERTEX
  5
861
  8
0
 10
-71.57674407958984
 20
-330.5373229980469
 30
118.0274963378906
 70
   192
  0
VERTEX
  5
862
  8
0
 10
-79.01913452148438
 20
-323.4865417480469
 30
91.13025665283203
 70
   192
  0
VERTEX
  5
863
  8
0
 10
-77.43135070800781
 20
-326.4862976074219
 30
91.13900756835938
 70
   192
  0
VERTEX
  5
864
  8
0
 10
-75.17707824707031
 20
-329.0827331542969
 30
91.1259994506836
 70
   192
  0
VERTEX
  5
865
  8
0
 10
-72.43009948730469
 20
-331.0757446289062
 30
91.09225463867188
 70
   192
  0
VERTEX
  5
866
  8
0
 10
-79.52783966064453
 20
-323.7537841796875
 30
63.40373229980469
 70
   192
  0
VERTEX
  5
867
  8
0
 10
-77.94677734375
 20
-326.7571105957031
 30
63.40255737304688
 70
   192
  0
VERTEX
  5
868
  8
0
 10
-75.69817352294922
 20
-329.3584594726562
 30
63.38980102539062
 70
   192
  0
VERTEX
  5
869
  8
0
 10
-72.95535278320312
 20
-331.3573303222656
 30
63.36646270751953
 70
   192
  0
VERTEX
  5
86A
  8
0
 10
-79.8284912109375
 20
-323.830078125
 30
35.51860046386719
 70
   192
  0
VERTEX
  5
86B
  8
0
 10
-78.25155639648438
 20
-326.8355407714844
 30
35.50692367553711
 70
   192
  0
VERTEX
  5
86C
  8
0
 10
-76.00648498535156
 20
-329.4399108886719
 30
35.48926544189453
 70
   192
  0
VERTEX
  5
86D
  8
0
 10
-73.2663345336914
 20
-331.4424743652344
 30
35.46698760986328
 70
   192
  0
VERTEX
  5
86E
  8
0
 10
-80.07209014892578
 20
-323.7778930664062
 30
7.120309352874756
 70
   192
  0
VERTEX
  5
86F
  8
0
 10
-78.4986343383789
 20
-326.7850952148438
 30
7.097831726074219
 70
   192
  0
VERTEX
  5
870
  8
0
 10
-76.25657653808594
 20
-329.3919677734375
 30
7.070376873016357
 70
   192
  0
VERTEX
  5
871
  8
0
 10
-73.51875305175781
 20
-331.3975830078125
 30
7.040061473846436
 70
   192
  0
VERTEX
  5
872
  8
0
 10
0.0
 20
0.0
 30
0.0
 70
   128
 71
   182
 72
     1
 73
   183
  0
VERTEX
  5
873
  8
0
 10
0.0
 20
0.0
 30
0.0
 70
   128
 71
   184
 72
   183
 73
   187
 74
   188
  0
VERTEX
  5
874
  8
0
 10
0.0
 20
0.0
 30
0.0
 70
   128
 71
   188
 72
   189
 73
   185
 74
   184
  0
VERTEX
  5
875
  8
0
 10
0.0
 20
0.0
 30
0.0
 70
   128
 71
   192
 72
   188
 73
   187
 74
   191
  0
VERTEX
  5
876
  8
0
 10
0.0
 20
0.0
 30
0.0
 70
   128
 71
   191
 72
   195
 73
   196
 74
   192
  0
VERTEX
  5
877
  8
0
 10
0.0
 20
0.0
 30
0.0
 70
   128
 71
    17
 72
   191
 73
    16
  0
VERTEX
  5
878
  8
0
 10
0.0
 20
0.0
 30
0.0
 70
   128
 71
    17
 72
   195
 73
   191
  0
VERTEX
  5
879
  8
0
 10
0.0
 20
0.0
 30
0.0
 70
   128
 71
    17
 72
    18
 73
   195
  0
VERTEX
  5
87A
  8
0
 10
0.0
 20
0.0
 30
0.0
 70
   128
 71
   195
 72
    18
 73
    19
  0
VERTEX
  5
87B
  8
0
 10
0.0
 20
0.0
 30
0.0
 70
   128
 71
    20
 72
   195
 73
    19
  0
VERTEX
  5
87C
  8
0
 10
0.0
 20
0.0
 30
0.0
 70
   128
 71
    20
 72
    21
 73
   195
  0
VERTEX
  5
87D
  8
0
 10
0.0
 20
0.0
 30
0.0
 70
   128
 71
   195
 72
    21
 73
    22
  0
VERTEX
  5
87E
  8
0
 10
0.0
 20
0.0
 30
0.0
 70
   128
 71
    23
 72
   195
 73
    22
  0
VERTEX
  5
87F
  8
0
 10
0.0
 20
0.0
 30
0.0
 70
   128
 71
    23
 72
    24
 73
   195
  0
VERTEX
  5
880
  8
0
 10
0.0
 20
0.0
 30
0.0
 70
   128
 71
   195
 72
    24
 73
    25
  0
VERTEX
  5
881
  8
0
 10
0.0
 20
0.0
 30
0.0
 70
   128
 71
    26
 72
   195
 73
    25
  0
VERTEX
  5
882
  8
0
 10
0.0
 20
0.0
 30
0.0
 70
   128
 71
    26
 72
   199
 73
   195
  0
VERTEX
  5
883
  8
0
 10
0.0
 20
0.0
 30
0.0
 70
   128
 71
    26
 72
    27
 73
   199
  0
VERTEX
  5
884
  8
0
 10
0.0
 20
0.0
 30
0.0
 70
   128
 71
   199
 72
    27
 73
    28
  0
VERTEX
  5
885
  8
0
 10
0.0
 20
0.0
 30
0.0
 70
   128
 71
    29
 72
   199
 73
    28
  0
VERTEX
  5
886
  8
0
 10
0.0
 20
0.0
 30
0.0
 70
   128
 71
    29
 72
    30
 73
   199
  0
VERTEX
  5
887
  8
0
 10
0.0
 20
0.0
 30
0.0
 70
   128
 71
   199
 72
    30
 73
    31
  0
VERTEX
  5
888
  8
0
 10
0.0
 20
0.0
 30
0.0
 70
   128
 71
    32
 72
   199
 73
    31
  0
VERTEX
  5
889
  8
0
 10
0.0
 20
0.0
 30
0.0
 70
   128
 71
    32
 72
    33
 73
   199
  0
VERTEX
  5
88A
  8
0
 10
0.0
 20
0.0
 30
0.0
 70
   128
 71
   199
 72
    33
 73
    34
  0
VERTEX
  5
88B
  8
0
 10
0.0
 20
0.0
 30
0.0
 70
   128
 71
    35
 72
   199
 73
    34
  0
VERTEX
  5
88C
  8
0
 10
0.0
 20
0.0
 30
0.0
 70
   128
 71
    35
 72
    36
 73
   199
  0
VERTEX
  5
88D
  8
0
 10
0.0
 20
0.0
 30
0.0
 70
   128
 71
   199
 72
    36
 73
    37
  0
VERTEX
  5
88E
  8
0
 10
0.0
 20
0.0
 30
0.0
 70
   128
 71
   203
 72
    37
 73
    38
  0
VERTEX
  5
88F
  8
0
 10
0.0
 20
0.0
 30
0.0
 70
   128
 71
    39
 72
   203
 73
    38
  0
VERTEX
  5
890
  8
0
 10
0.0
 20
0.0
 30
0.0
 70
   128
 71
    39
 72
    40
 73
   203
  0
VERTEX
  5
891
  8
0
 10
0.0
 20
0.0
 30
0.0
 70
   128
 71
   203
 72
    40
 73
    41
  0
VERTEX
  5
892
  8
0
 10
0.0
 20
0.0
 30
0.0
 70
   128
 71
    42
 72
   203
 73
    41
  0
VERTEX
  5
893
  8
0
 10
0.0
 20
0.0
 30
0.0
 70
   128
 71
    42
 72
    43
 73
   203
  0
VERTEX
  5
894
  8
0
 10
0.0
 20
0.0
 30
0.0
 70
   128
 71
   203
 72
    43
 73
    44
  0
VERTEX
  5
895
  8
0
 10
0.0
 20
0.0
 30
0.0
 70
   128
 71
   207
 72
    44
 73
    45
  0
VERTEX
  5
896
  8
0
 10
0.0
 20
0.0
 30
0.0
 70
   128
 71
    46
 72
   207
 73
    45
  0
VERTEX
  5
897
  8
0
 10
0.0
 20
0.0
 30
0.0
 70
   128
 71
    46
 72
    47
 73
   207
  0
VERTEX
  5
898
  8
0
 10
0.0
 20
0.0
 30
0.0
 70
   128
 71
   207
 72
    47
 73
    48
  0
VERTEX
  5
899
  8
0
 10
0.0
 20
0.0
 30
0.0
 70
   128
 71
    49
 72
   207
 73
    48
  0
VERTEX
  5
89A
  8
0
 10
0.0
 20
0.0
 30
0.0
 70
   128
 71
    49
 72
   211
 73
   207
  0
VERTEX
  5
89B
  8
0
 10
0.0
 20
0.0
 30
0.0
 70
   128
 71
    49
 72
    50
 73
   211
  0
VERTEX
  5
89C
  8
0
 10
0.0
 20
0.0
 30
0.0
 70
   128
 71
   211
 72
    50
 73
    51
  0
VERTEX
  5
89D
  8
0
 10
0.0
 20
0.0
 30
0.0
 70
   128
 71
    52
 72
   211
 73
    51
  0
VERTEX
  5
89E
  8
0
 10
0.0
 20
0.0
 30
0.0
 70
   128
 71
    52
 72
    53
 73
   211
  0
VERTEX
  5
89F
  8
0
 10
0.0
 20
0.0
 30
0.0
 70
   128
 71
   211
 72
    53
 73
    54
  0
VERTEX
  5
8A0
  8
0
 10
0.0
 20
0.0
 30
0.0
 70
   128
 71
   215
 72
    54
 73
    55
  0
VERTEX
  5
8A1
  8
0
 10
0.0
 20
0.0
 30
0.0
 70
   128
 71
    56
 72
   215
 73
    55
  0
VERTEX
  5
8A2
  8
0
 10
0.0
 20
0.0
 30
0.0
 70
   128
 71
    56
 72
    57
 73
   215
  0
VERTEX
  5
8A3
  8
0
 10
0.0
 20
0.0
 30
0.0
 70
   128
 71
   215
 72
    57
 73
    58
  0
VERTEX
  5
8A4
  8
0
 10
0.0
 20
0.0
 30
0.0
 70
   128
 71
    59
 72
   215
 73
    58
  0
VERTEX
  5
8A5
  8
0
 10
0.0
 20
0.0
 30
0.0
 70
   128
 71
    59
 72
    60
 73
   215
  0
VERTEX
  5
8A6
  8
0
 10
0.0
 20
0.0
 30
0.0
 70
   128
 71
   215
 72
    60
 73
    61
  0
VERTEX
  5
8A7
  8
0
 10
0.0
 20
0.0
 30
0.0
 70
   128
 71
    62
 72
   215
 73
    61
  0
VERTEX
  5
8A8
  8
0
 10
0.0
 20
0.0
 30
0.0
 70
   128
 71
    62
 72
   219
 73
   215
  0
VERTEX
  5
8A9
  8
0
 10
0.0
 20
0.0
 30
0.0
 70
   128
 71
    62
 72
    63
 73
   219
  0
VERTEX
  5
8AA
  8
0
 10
0.0
 20
0.0
 30
0.0
 70
   128
 71
   219
 72
    63
 73
    64
  0
VERTEX
  5
8AB
  8
0
 10
0.0
 20
0.0
 30
0.0
 70
   128
 71
    65
 72
   219
 73
    64
  0
VERTEX
  5
8AC
  8
0
 10
0.0
 20
0.0
 30
0.0
 70
   128
 71
    65
 72
    66
 73
   219
  0
VERTEX
  5
8AD
  8
0
 10
0.0
 20
0.0
 30
0.0
 70
   128
 71
   219
 72
    66
 73
    67
  0
VERTEX
  5
8AE
  8
0
 10
0.0
 20
0.0
 30
0.0
 70
   128
 71
    68
 72
   219
 73
    67
  0
VERTEX
  5
8AF
  8
0
 10
0.0
 20
0.0
 30
0.0
 70
   128
 71
    68
 72
    69
 73
   219
  0
VERTEX
  5
8B0
  8
0
 10
0.0
 20
0.0
 30
0.0
 70
   128
 71
   219
 72
    69
 73
    70
  0
VERTEX
  5
8B1
  8
0
 10
0.0
 20
0.0
 30
0.0
 70
   128
 71
   223
 72
    70
 73
    71
  0
VERTEX
  5
8B2
  8
0
 10
0.0
 20
0.0
 30
0.0
 70
   128
 71
    72
 72
   223
 73
    71
  0
VERTEX
  5
8B3
  8
0
 10
0.0
 20
0.0
 30
0.0
 70
   128
 71
    72
 72
    73
 73
   223
  0
VERTEX
  5
8B4
  8
0
 10
0.0
 20
0.0
 30
0.0
 70
   128
 71
   223
 72
    73
 73
    74
  0
VERTEX
  5
8B5
  8
0
 10
0.0
 20
0.0
 30
0.0
 70
   128
 71
    75
 72
   223
 73
    74
  0
VERTEX
  5
8B6
  8
0
 10
0.0
 20
0.0
 30
0.0
 70
   128
 71
    75
 72
   227
 73
   223
  0
VERTEX
  5
8B7
  8
0
 10
0.0
 20
0.0
 30
0.0
 70
   128
 71
    75
 72
    76
 73
   227
  0
VERTEX
  5
8B8
  8
0
 10
0.0
 20
0.0
 30
0.0
 70
   128
 71
   227
 72
    76
 73
    77
  0
VERTEX
  5
8B9
  8
0
 10
0.0
 20
0.0
 30
0.0
 70
   128
 71
    78
 72
   227
 73
    77
  0
VERTEX
  5
8BA
  8
0
 10
0.0
 20
0.0
 30
0.0
 70
   128
 71
    78
 72
   231
 73
   227
  0
VERTEX
  5
8BB
  8
0
 10
0.0
 20
0.0
 30
0.0
 70
   128
 71
    78
 72
    79
 73
   231
  0
VERTEX
  5
8BC
  8
0
 10
0.0
 20
0.0
 30
0.0
 70
   128
 71
   231
 72
    79
 73
    80
  0
VERTEX
  5
8BD
  8
0
 10
0.0
 20
0.0
 30
0.0
 70
   128
 71
    81
 72
   231
 73
    80
  0
VERTEX
  5
8BE
  8
0
 10
0.0
 20
0.0
 30
0.0
 70
   128
 71
    81
 72
   235
 73
   231
  0
VERTEX
  5
8BF
  8
0
 10
0.0
 20
0.0
 30
0.0
 70
   128
 71
    81
 72
    82
 73
   235
  0
VERTEX
  5
8C0
  8
0
 10
0.0
 20
0.0
 30
0.0
 70
   128
 71
   235
 72
    82
 73
    83
  0
VERTEX
  5
8C1
  8
0
 10
0.0
 20
0.0
 30
0.0
 70
   128
 71
   239
 72
    83
 73
    84
  0
VERTEX
  5
8C2
  8
0
 10
0.0
 20
0.0
 30
0.0
 70
   128
 71
    85
 72
   239
 73
    84
  0
VERTEX
  5
8C3
  8
0
 10
0.0
 20
0.0
 30
0.0
 70
   128
 71
    85
 72
    86
 73
   239
  0
VERTEX
  5
8C4
  8
0
 10
0.0
 20
0.0
 30
0.0
 70
   128
 71
   239
 72
    86
 73
    87
  0
VERTEX
  5
8C5
  8
0
 10
0.0
 20
0.0
 30
0.0
 70
   128
 71
   240
 72
    87
 73
    88
  0
VERTEX
  5
8C6
  8
0
 10
0.0
 20
0.0
 30
0.0
 70
   128
 71
    89
 72
   240
 73
    88
  0
VERTEX
  5
8C7
  8
0
 10
0.0
 20
0.0
 30
0.0
 70
   128
 71
    89
 72
   241
 73
   240
  0
VERTEX
  5
8C8
  8
0
 10
0.0
 20
0.0
 30
0.0
 70
   128
 71
    89
 72
    90
 73
   241
  0
VERTEX
  5
8C9
  8
0
 10
0.0
 20
0.0
 30
0.0
 70
   128
 71
   241
 72
    90
 73
    91
  0
VERTEX
  5
8CA
  8
0
 10
0.0
 20
0.0
 30
0.0
 70
   128
 71
   242
 72
    91
 73
    92
  0
VERTEX
  5
8CB
  8
0
 10
0.0
 20
0.0
 30
0.0
 70
   128
 71
    93
 72
   242
 73
    92
  0
VERTEX
  5
8CC
  8
0
 10
0.0
 20
0.0
 30
0.0
 70
   128
 71
    93
 72
    94
 73
   242
  0
VERTEX
  5
8CD
  8
0
 10
0.0
 20
0.0
 30
0.0
 70
   128
 71
   242
 72
    94
 73
    95
  0
VERTEX
  5
8CE
  8
0
 10
0.0
 20
0.0
 30
0.0
 70
   128
 71
   238
 72
    95
 73
    96
  0
VERTEX
  5
8CF
  8
0
 10
0.0
 20
0.0
 30
0.0
 70
   128
 71
    97
 72
   238
 73
    96
  0
VERTEX
  5
8D0
  8
0
 10
0.0
 20
0.0
 30
0.0
 70
   128
 71
    97
 72
   234
 73
   238
  0
VERTEX
  5
8D1
  8
0
 10
0.0
 20
0.0
 30
0.0
 70
   128
 71
    97
 72
    98
 73
   234
  0
VERTEX
  5
8D2
  8
0
 10
0.0
 20
0.0
 30
0.0
 70
   128
 71
   234
 72
    98
 73
    99
  0
VERTEX
  5
8D3
  8
0
 10
0.0
 20
0.0
 30
0.0
 70
   128
 71
   100
 72
   234
 73
    99
  0
VERTEX
  5
8D4
  8
0
 10
0.0
 20
0.0
 30
0.0
 70
   128
 71
   100
 72
   230
 73
   234
  0
VERTEX
  5
8D5
  8
0
 10
0.0
 20
0.0
 30
0.0
 70
   128
 71
   100
 72
   101
 73
   230
  0
VERTEX
  5
8D6
  8
0
 10
0.0
 20
0.0
 30
0.0
 70
   128
 71
   230
 72
   101
 73
   102
  0
VERTEX
  5
8D7
  8
0
 10
0.0
 20
0.0
 30
0.0
 70
   128
 71
   103
 72
   230
 73
   102
  0
VERTEX
  5
8D8
  8
0
 10
0.0
 20
0.0
 30
0.0
 70
   128
 71
   103
 72
   226
 73
   230
  0
VERTEX
  5
8D9
  8
0
 10
0.0
 20
0.0
 30
0.0
 70
   128
 71
   103
 72
   104
 73
   226
  0
VERTEX
  5
8DA
  8
0
 10
0.0
 20
0.0
 30
0.0
 70
   128
 71
   226
 72
   104
 73
   105
  0
VERTEX
  5
8DB
  8
0
 10
0.0
 20
0.0
 30
0.0
 70
   128
 71
   106
 72
   226
 73
   105
  0
VERTEX
  5
8DC
  8
0
 10
0.0
 20
0.0
 30
0.0
 70
   128
 71
   106
 72
   107
 73
   226
  0
VERTEX
  5
8DD
  8
0
 10
0.0
 20
0.0
 30
0.0
 70
   128
 71
   226
 72
   107
 73
   108
  0
VERTEX
  5
8DE
  8
0
 10
0.0
 20
0.0
 30
0.0
 70
   128
 71
   222
 72
   108
 73
   109
  0
VERTEX
  5
8DF
  8
0
 10
0.0
 20
0.0
 30
0.0
 70
   128
 71
   110
 72
   222
 73
   109
  0
VERTEX
  5
8E0
  8
0
 10
0.0
 20
0.0
 30
0.0
 70
   128
 71
   110
 72
   111
 73
   222
  0
VERTEX
  5
8E1
  8
0
 10
0.0
 20
0.0
 30
0.0
 70
   128
 71
   222
 72
   111
 73
   112
  0
VERTEX
  5
8E2
  8
0
 10
0.0
 20
0.0
 30
0.0
 70
   128
 71
   113
 72
   222
 73
   112
  0
VERTEX
  5
8E3
  8
0
 10
0.0
 20
0.0
 30
0.0
 70
   128
 71
   113
 72
   114
 73
   222
  0
VERTEX
  5
8E4
  8
0
 10
0.0
 20
0.0
 30
0.0
 70
   128
 71
   222
 72
   114
 73
   115
  0
VERTEX
  5
8E5
  8
0
 10
0.0
 20
0.0
 30
0.0
 70
   128
 71
   116
 72
   222
 73
   115
  0
VERTEX
  5
8E6
  8
0
 10
0.0
 20
0.0
 30
0.0
 70
   128
 71
   116
 72
   218
 73
   222
  0
VERTEX
  5
8E7
  8
0
 10
0.0
 20
0.0
 30
0.0
 70
   128
 71
   116
 72
   117
 73
   218
  0
VERTEX
  5
8E8
  8
0
 10
0.0
 20
0.0
 30
0.0
 70
   128
 71
   218
 72
   117
 73
   118
  0
VERTEX
  5
8E9
  8
0
 10
0.0
 20
0.0
 30
0.0
 70
   128
 71
   119
 72
   218
 73
   118
  0
VERTEX
  5
8EA
  8
0
 10
0.0
 20
0.0
 30
0.0
 70
   128
 71
   119
 72
   120
 73
   218
  0
VERTEX
  5
8EB
  8
0
 10
0.0
 20
0.0
 30
0.0
 70
   128
 71
   218
 72
   120
 73
   121
  0
VERTEX
  5
8EC
  8
0
 10
0.0
 20
0.0
 30
0.0
 70
   128
 71
   122
 72
   218
 73
   121
  0
VERTEX
  5
8ED
  8
0
 10
0.0
 20
0.0
 30
0.0
 70
   128
 71
   122
 72
   123
 73
   218
  0
VERTEX
  5
8EE
  8
0
 10
0.0
 20
0.0
 30
0.0
 70
   128
 71
   218
 72
   123
 73
   124
  0
VERTEX
  5
8EF
  8
0
 10
0.0
 20
0.0
 30
0.0
 70
   128
 71
   214
 72
   124
 73
   125
  0
VERTEX
  5
8F0
  8
0
 10
0.0
 20
0.0
 30
0.0
 70
   128
 71
   126
 72
   214
 73
   125
  0
VERTEX
  5
8F1
  8
0
 10
0.0
 20
0.0
 30
0.0
 70
   128
 71
   126
 72
   127
 73
   214
  0
VERTEX
  5
8F2
  8
0
 10
0.0
 20
0.0
 30
0.0
 70
   128
 71
   214
 72
   127
 73
   128
  0
VERTEX
  5
8F3
  8
0
 10
0.0
 20
0.0
 30
0.0
 70
   128
 71
   129
 72
   214
 73
   128
  0
VERTEX
  5
8F4
  8
0
 10
0.0
 20
0.0
 30
0.0
 70
   128
 71
   129
 72
   210
 73
   214
  0
VERTEX
  5
8F5
  8
0
 10
0.0
 20
0.0
 30
0.0
 70
   128
 71
   129
 72
   130
 73
   210
  0
VERTEX
  5
8F6
  8
0
 10
0.0
 20
0.0
 30
0.0
 70
   128
 71
   210
 72
   130
 73
   131
  0
VERTEX
  5
8F7
  8
0
 10
0.0
 20
0.0
 30
0.0
 70
   128
 71
   132
 72
   210
 73
   131
  0
VERTEX
  5
8F8
  8
0
 10
0.0
 20
0.0
 30
0.0
 70
   128
 71
   132
 72
   133
 73
   210
  0
VERTEX
  5
8F9
  8
0
 10
0.0
 20
0.0
 30
0.0
 70
   128
 71
   210
 72
   133
 73
   134
  0
VERTEX
  5
8FA
  8
0
 10
0.0
 20
0.0
 30
0.0
 70
   128
 71
   206
 72
   134
 73
   135
  0
VERTEX
  5
8FB
  8
0
 10
0.0
 20
0.0
 30
0.0
 70
   128
 71
   136
 72
   206
 73
   135
  0
VERTEX
  5
8FC
  8
0
 10
0.0
 20
0.0
 30
0.0
 70
   128
 71
   136
 72
   137
 73
   206
  0
VERTEX
  5
8FD
  8
0
 10
0.0
 20
0.0
 30
0.0
 70
   128
 71
   206
 72
   137
 73
   138
  0
VERTEX
  5
8FE
  8
0
 10
0.0
 20
0.0
 30
0.0
 70
   128
 71
   139
 72
   206
 73
   138
  0
VERTEX
  5
8FF
  8
0
 10
0.0
 20
0.0
 30
0.0
 70
   128
 71
   139
 72
   140
 73
   206
  0
VERTEX
  5
900
  8
0
 10
0.0
 20
0.0
 30
0.0
 70
   128
 71
   206
 72
   140
 73
   202
  0
VERTEX
  5
901
  8
0
 10
0.0
 20
0.0
 30
0.0
 70
   128
 71
   201
 72
   202
 73
   198
 74
   197
  0
VERTEX
  5
902
  8
0
 10
0.0
 20
0.0
 30
0.0
 70
   128
 71
   197
 72
   196
 73
   200
 74
   201
  0
VERTEX
  5
903
  8
0
 10
0.0
 20
0.0
 30
0.0
 70
   128
 71
   193
 72
   197
 73
   198
 74
   194
  0
VERTEX
  5
904
  8
0
 10
0.0
 20
0.0
 30
0.0
 70
   128
 71
   194
 72
   190
 73
   189
 74
   193
  0
VERTEX
  5
905
  8
0
 10
0.0
 20
0.0
 30
0.0
 70
   128
 71
   167
 72
   194
 73
   166
  0
VERTEX
  5
906
  8
0
 10
0.0
 20
0.0
 30
0.0
 70
   128
 71
   167
 72
   190
 73
   194
  0
VERTEX
  5
907
  8
0
 10
0.0
 20
0.0
 30
0.0
 70
   128
 71
   167
 72
   168
 73
   190
  0
VERTEX
  5
908
  8
0
 10
0.0
 20
0.0
 30
0.0
 70
   128
 71
   190
 72
   168
 73
   169
  0
VERTEX
  5
909
  8
0
 10
0.0
 20
0.0
 30
0.0
 70
   128
 71
   170
 72
   190
 73
   169
  0
VERTEX
  5
90A
  8
0
 10
0.0
 20
0.0
 30
0.0
 70
   128
 71
   170
 72
   171
 73
   190
  0
VERTEX
  5
90B
  8
0
 10
0.0
 20
0.0
 30
0.0
 70
   128
 71
   190
 72
   171
 73
   172
  0
VERTEX
  5
90C
  8
0
 10
0.0
 20
0.0
 30
0.0
 70
   128
 71
   186
 72
   172
 73
   173
  0
VERTEX
  5
90D
  8
0
 10
0.0
 20
0.0
 30
0.0
 70
   128
 71
   174
 72
   186
 73
   173
  0
VERTEX
  5
90E
  8
0
 10
0.0
 20
0.0
 30
0.0
 70
   128
 71
   174
 72
   175
 73
   186
  0
VERTEX
  5
90F
  8
0
 10
0.0
 20
0.0
 30
0.0
 70
   128
 71
   186
 72
   175
 73
   178
  0
VERTEX
  5
910
  8
0
 10
0.0
 20
0.0
 30
0.0
 70
   128
 71
   179
 72
   186
 73
   178
  0
VERTEX
  5
911
  8
0
 10
0.0
 20
0.0
 30
0.0
 70
   128
 71
   179
 72
   185
 73
   186
  0
VERTEX
  5
912
  8
0
 10
0.0
 20
0.0
 30
0.0
 70
   128
 71
   179
 72
   180
 73
   185
  0
VERTEX
  5
913
  8
0
 10
0.0
 20
0.0
 30
0.0
 70
   128
 71
   185
 72
   180
 73
   184
  0
VERTEX
  5
914
  8
0
 10
0.0
 20
0.0
 30
0.0
 70
   128
 71
   184
 72
   180
 73
   181
  0
VERTEX
  5
915
  8
0
 10
0.0
 20
0.0
 30
0.0
 70
   128
 71
   182
 72
   184
 73
   181
  0
VERTEX
  5
916
  8
0
 10
0.0
 20
0.0
 30
0.0
 70
   128
 71
   182
 72
   183
 73
   184
  0
VERTEX
  5
917
  8
0
 10
0.0
 20
0.0
 30
0.0
 70
   128
 71
     1
 72
     2
 73
   183
  0
VERTEX
  5
918
  8
0
 10
0.0
 20
0.0
 30
0.0
 70
   128
 71
   183
 72
     2
 73
     3
  0
VERTEX
  5
919
  8
0
 10
0.0
 20
0.0
 30
0.0
 70
   128
 71
     4
 72
   183
 73
     3
  0
VERTEX
  5
91A
  8
0
 10
0.0
 20
0.0
 30
0.0
 70
   128
 71
     4
 72
     5
 73
   183
  0
VERTEX
  5
91B
  8
0
 10
0.0
 20
0.0
 30
0.0
 70
   128
 71
   183
 72
     5
 73
     6
  0
VERTEX
  5
91C
  8
0
 10
0.0
 20
0.0
 30
0.0
 70
   128
 71
   187
 72
     6
 73
     7
  0
VERTEX
  5
91D
  8
0
 10
0.0
 20
0.0
 30
0.0
 70
   128
 71
     8
 72
   187
 73
     7
  0
VERTEX
  5
91E
  8
0
 10
0.0
 20
0.0
 30
0.0
 70
   128
 71
     8
 72
     9
 73
   187
  0
VERTEX
  5
91F
  8
0
 10
0.0
 20
0.0
 30
0.0
 70
   128
 71
   187
 72
     9
 73
    10
  0
VERTEX
  5
920
  8
0
 10
0.0
 20
0.0
 30
0.0
 70
   128
 71
    11
 72
   187
 73
    10
  0
VERTEX
  5
921
  8
0
 10
0.0
 20
0.0
 30
0.0
 70
   128
 71
    11
 72
    12
 73
   187
  0
VERTEX
  5
922
  8
0
 10
0.0
 20
0.0
 30
0.0
 70
   128
 71
   187
 72
    12
 73
   191
  0
VERTEX
  5
923
  8
0
 10
0.0
 20
0.0
 30
0.0
 70
   128
 71
   191
 72
    12
 73
    13
  0
VERTEX
  5
924
  8
0
 10
0.0
 20
0.0
 30
0.0
 70
   128
 71
    14
 72
   191
 73
    13
  0
VERTEX
  5
925
  8
0
 10
0.0
 20
0.0
 30
0.0
 70
   128
 71
    14
 72
    15
 73
   191
  0
VERTEX
  5
926
  8
0
 10
0.0
 20
0.0
 30
0.0
 70
   128
 71
   191
 72
    15
 73
    16
  0
VERTEX
  5
927
  8
0
 10
0.0
 20
0.0
 30
0.0
 70
   128
 71
   140
 72
   141
 73
   202
  0
VERTEX
  5
928
  8
0
 10
0.0
 20
0.0
 30
0.0
 70
   128
 71
   202
 72
   141
 73
   142
  0
VERTEX
  5
929
  8
0
 10
0.0
 20
0.0
 30
0.0
 70
   128
 71
   143
 72
   202
 73
   142
  0
VERTEX
  5
92A
  8
0
 10
0.0
 20
0.0
 30
0.0
 70
   128
 71
   143
 72
   144
 73
   202
  0
VERTEX
  5
92B
  8
0
 10
0.0
 20
0.0
 30
0.0
 70
   128
 71
   202
 72
   144
 73
   145
  0
VERTEX
  5
92C
  8
0
 10
0.0
 20
0.0
 30
0.0
 70
   128
 71
   146
 72
   202
 73
   145
  0
VERTEX
  5
92D
  8
0
 10
0.0
 20
0.0
 30
0.0
 70
   128
 71
   146
 72
   147
 73
   202
  0
VERTEX
  5
92E
  8
0
 10
0.0
 20
0.0
 30
0.0
 70
   128
 71
   202
 72
   147
 73
   148
  0
VERTEX
  5
92F
  8
0
 10
0.0
 20
0.0
 30
0.0
 70
   128
 71
   149
 72
   202
 73
   148
  0
VERTEX
  5
930
  8
0
 10
0.0
 20
0.0
 30
0.0
 70
   128
 71
   149
 72
   198
 73
   202
  0
VERTEX
  5
931
  8
0
 10
0.0
 20
0.0
 30
0.0
 70
   128
 71
   149
 72
   150
 73
   198
  0
VERTEX
  5
932
  8
0
 10
0.0
 20
0.0
 30
0.0
 70
   128
 71
   198
 72
   150
 73
   151
  0
VERTEX
  5
933
  8
0
 10
0.0
 20
0.0
 30
0.0
 70
   128
 71
   152
 72
   198
 73
   151
  0
VERTEX
  5
934
  8
0
 10
0.0
 20
0.0
 30
0.0
 70
   128
 71
   152
 72
   153
 73
   198
  0
VERTEX
  5
935
  8
0
 10
0.0
 20
0.0
 30
0.0
 70
   128
 71
   198
 72
   153
 73
   154
  0
VERTEX
  5
936
  8
0
 10
0.0
 20
0.0
 30
0.0
 70
   128
 71
   155
 72
   198
 73
   154
  0
VERTEX
  5
937
  8
0
 10
0.0
 20
0.0
 30
0.0
 70
   128
 71
   155
 72
   156
 73
   198
  0
VERTEX
  5
938
  8
0
 10
0.0
 20
0.0
 30
0.0
 70
   128
 71
   198
 72
   156
 73
   157
  0
VERTEX
  5
939
  8
0
 10
0.0
 20
0.0
 30
0.0
 70
   128
 71
   158
 72
   198
 73
   157
  0
VERTEX
  5
93A
  8
0
 10
0.0
 20
0.0
 30
0.0
 70
   128
 71
   158
 72
   159
 73
   198
  0
VERTEX
  5
93B
  8
0
 10
0.0
 20
0.0
 30
0.0
 70
   128
 71
   198
 72
   159
 73
   160
  0
VERTEX
  5
93C
  8
0
 10
0.0
 20
0.0
 30
0.0
 70
   128
 71
   194
 72
   160
 73
   161
  0
VERTEX
  5
93D
  8
0
 10
0.0
 20
0.0
 30
0.0
 70
   128
 71
   162
 72
   194
 73
   161
  0
VERTEX
  5
93E
  8
0
 10
0.0
 20
0.0
 30
0.0
 70
   128
 71
   162
 72
   163
 73
   194
  0
VERTEX
  5
93F
  8
0
 10
0.0
 20
0.0
 30
0.0
 70
   128
 71
   194
 72
   163
 73
   164
  0
VERTEX
  5
940
  8
0
 10
0.0
 20
0.0
 30
0.0
 70
   128
 71
   165
 72
   194
 73
   164
  0
VERTEX
  5
941
  8
0
 10
0.0
 20
0.0
 30
0.0
 70
   128
 71
   165
 72
   166
 73
   194
  0
VERTEX
  5
942
  8
0
 10
0.0
 20
0.0
 30
0.0
 70
   128
 71
   175
 72
   176
 73
   178
  0
VERTEX
  5
943
  8
0
 10
0.0
 20
0.0
 30
0.0
 70
   128
 71
   178
 72
   176
 73
   177
  0
VERTEX
  5
944
  8
0
 10
0.0
 20
0.0
 30
0.0
 70
   128
 71
   186
 72
   185
 73
   189
 74
   190
  0
VERTEX
  5
945
  8
0
 10
0.0
 20
0.0
 30
0.0
 70
   128
 71
   186
 72
   190
 73
   172
  0
VERTEX
  5
946
  8
0
 10
0.0
 20
0.0
 30
0.0
 70
   128
 71
   189
 72
   188
 73
   192
 74
   193
  0
VERTEX
  5
947
  8
0
 10
0.0
 20
0.0
 30
0.0
 70
   128
 71
   193
 72
   192
 73
   196
 74
   197
  0
VERTEX
  5
948
  8
0
 10
0.0
 20
0.0
 30
0.0
 70
   128
 71
   187
 72
   183
 73
     6
  0
VERTEX
  5
949
  8
0
 10
0.0
 20
0.0
 30
0.0
 70
   128
 71
   196
 72
   195
 73
   199
 74
   200
  0
VERTEX
  5
94A
  8
0
 10
0.0
 20
0.0
 30
0.0
 70
   128
 71
   200
 72
   199
 73
   203
 74
   204
  0
VERTEX
  5
94B
  8
0
 10
0.0
 20
0.0
 30
0.0
 70
   128
 71
   204
 72
   205
 73
   201
 74
   200
  0
VERTEX
  5
94C
  8
0
 10
0.0
 20
0.0
 30
0.0
 70
   128
 71
   208
 72
   204
 73
   203
 74
   207
  0
VERTEX
  5
94D
  8
0
 10
0.0
 20
0.0
 30
0.0
 70
   128
 71
   212
 72
   211
 73
   215
 74
   216
  0
VERTEX
  5
94E
  8
0
 10
0.0
 20
0.0
 30
0.0
 70
   128
 71
   216
 72
   217
 73
   213
 74
   212
  0
VERTEX
  5
94F
  8
0
 10
0.0
 20
0.0
 30
0.0
 70
   128
 71
   220
 72
   216
 73
   215
 74
   219
  0
VERTEX
  5
950
  8
0
 10
0.0
 20
0.0
 30
0.0
 70
   128
 71
   219
 72
   223
 73
   224
 74
   220
  0
VERTEX
  5
951
  8
0
 10
0.0
 20
0.0
 30
0.0
 70
   128
 71
    70
 72
   223
 73
   219
  0
VERTEX
  5
952
  8
0
 10
0.0
 20
0.0
 30
0.0
 70
   128
 71
   194
 72
   198
 73
   160
  0
VERTEX
  5
953
  8
0
 10
0.0
 20
0.0
 30
0.0
 70
   128
 71
   202
 72
   201
 73
   205
 74
   206
  0
VERTEX
  5
954
  8
0
 10
0.0
 20
0.0
 30
0.0
 70
   128
 71
   206
 72
   205
 73
   209
 74
   210
  0
VERTEX
  5
955
  8
0
 10
0.0
 20
0.0
 30
0.0
 70
   128
 71
   206
 72
   210
 73
   134
  0
VERTEX
  5
956
  8
0
 10
0.0
 20
0.0
 30
0.0
 70
   128
 71
   205
 72
   204
 73
   208
 74
   209
  0
VERTEX
  5
957
  8
0
 10
0.0
 20
0.0
 30
0.0
 70
   128
 71
   209
 72
   208
 73
   212
 74
   213
  0
VERTEX
  5
958
  8
0
 10
0.0
 20
0.0
 30
0.0
 70
   128
 71
   213
 72
   214
 73
   210
 74
   209
  0
VERTEX
  5
959
  8
0
 10
0.0
 20
0.0
 30
0.0
 70
   128
 71
   217
 72
   218
 73
   214
 74
   213
  0
VERTEX
  5
95A
  8
0
 10
0.0
 20
0.0
 30
0.0
 70
   128
 71
   221
 72
   217
 73
   216
 74
   220
  0
VERTEX
  5
95B
  8
0
 10
0.0
 20
0.0
 30
0.0
 70
   128
 71
   225
 72
   224
 73
   228
 74
   229
  0
VERTEX
  5
95C
  8
0
 10
0.0
 20
0.0
 30
0.0
 70
   128
 71
   229
 72
   230
 73
   226
 74
   225
  0
VERTEX
  5
95D
  8
0
 10
0.0
 20
0.0
 30
0.0
 70
   128
 71
   233
 72
   229
 73
   228
 74
   232
  0
VERTEX
  5
95E
  8
0
 10
0.0
 20
0.0
 30
0.0
 70
   128
 71
   232
 72
   236
 73
   237
 74
   233
  0
VERTEX
  5
95F
  8
0
 10
0.0
 20
0.0
 30
0.0
 70
   128
 71
   231
 72
   232
 73
   228
 74
   227
  0
VERTEX
  5
960
  8
0
 10
0.0
 20
0.0
 30
0.0
 70
   128
 71
   235
 72
   236
 73
   232
 74
   231
  0
VERTEX
  5
961
  8
0
 10
0.0
 20
0.0
 30
0.0
 70
   128
 71
   239
 72
   235
 73
    83
  0
VERTEX
  5
962
  8
0
 10
0.0
 20
0.0
 30
0.0
 70
   128
 71
   239
 72
   240
 73
   236
 74
   235
  0
VERTEX
  5
963
  8
0
 10
0.0
 20
0.0
 30
0.0
 70
   128
 71
    87
 72
   240
 73
   239
  0
VERTEX
  5
964
  8
0
 10
0.0
 20
0.0
 30
0.0
 70
   128
 71
   203
 72
   199
 73
    37
  0
VERTEX
  5
965
  8
0
 10
0.0
 20
0.0
 30
0.0
 70
   128
 71
   208
 72
   207
 73
   211
 74
   212
  0
VERTEX
  5
966
  8
0
 10
0.0
 20
0.0
 30
0.0
 70
   128
 71
   207
 72
   203
 73
    44
  0
VERTEX
  5
967
  8
0
 10
0.0
 20
0.0
 30
0.0
 70
   128
 71
   218
 72
   217
 73
   221
 74
   222
  0
VERTEX
  5
968
  8
0
 10
0.0
 20
0.0
 30
0.0
 70
   128
 71
   222
 72
   221
 73
   225
 74
   226
  0
VERTEX
  5
969
  8
0
 10
0.0
 20
0.0
 30
0.0
 70
   128
 71
   222
 72
   226
 73
   108
  0
VERTEX
  5
96A
  8
0
 10
0.0
 20
0.0
 30
0.0
 70
   128
 71
   215
 72
   211
 73
    54
  0
VERTEX
  5
96B
  8
0
 10
0.0
 20
0.0
 30
0.0
 70
   128
 71
   214
 72
   218
 73
   124
  0
VERTEX
  5
96C
  8
0
 10
0.0
 20
0.0
 30
0.0
 70
   128
 71
   221
 72
   220
 73
   224
 74
   225
  0
VERTEX
  5
96D
  8
0
 10
0.0
 20
0.0
 30
0.0
 70
   128
 71
   224
 72
   223
 73
   227
 74
   228
  0
VERTEX
  5
96E
  8
0
 10
0.0
 20
0.0
 30
0.0
 70
   128
 71
   230
 72
   229
 73
   233
 74
   234
  0
VERTEX
  5
96F
  8
0
 10
0.0
 20
0.0
 30
0.0
 70
   128
 71
   234
 72
   233
 73
   237
 74
   238
  0
VERTEX
  5
970
  8
0
 10
0.0
 20
0.0
 30
0.0
 70
   128
 71
   238
 72
   237
 73
   241
 74
   242
  0
VERTEX
  5
971
  8
0
 10
0.0
 20
0.0
 30
0.0
 70
   128
 71
   238
 72
   242
 73
    95
  0
VERTEX
  5
972
  8
0
 10
0.0
 20
0.0
 30
0.0
 70
   128
 71
   237
 72
   236
 73
   240
 74
   241
  0
VERTEX
  5
973
  8
0
 10
0.0
 20
0.0
 30
0.0
 70
   128
 71
   242
 72
   241
 73
    91
  0
SEQEND
  5
974
  8
LAYER1
 62
     7
  0
VIEWPORT
  5
42
 67
     1
  8
0
 10
0.0
 20
0.0
 30
0.0
 40
1.0
 41
1.0
 68
     1
 69
     1
1001
ACAD
1000
MVIEW
1002
{
1070
    16
1010
0.0
1020
0.0
1030
0.0
1020
0.0
1030
0.0
1010
0.0
1020
0.0
1030
1.0
1020
0.0
1030
1.0
1040
0.0
1040
1.0
1040
0.0
1040
0.0
1040
50.0
1040
0.0
1040
0.0
1070
     0
1070
   100
1070
     0
1070
     3
1070
     0
1070
     0
1070
     0
1070
     0
1040
0.0
1040
0.0
1040
0.0
1040
0.5
1040
0.5
1040
0.0
1040
0.0
1070
     0
1002
{
1002
}
1002
}
  0
ENDSEC
  0
EOF
