  0
SECTION
  2
HEADER
  9
$ACADVER
  1
AC1009
  9
$DWGCODEPAGE
  3
ansi_1251
  9
$INSBASE
 10
0.0
 20
0.0
 30
0.0
  9
$EXTMIN
 10
-603.0000152587891
 20
-9.99999977350235
 30
-0.0000000000000288
  9
$EXTMAX
 10
603.0000152587891
 20
145.9423814708191
 30
443.9999820709228
  9
$LIMMIN
 10
0.0
 20
0.0
  9
$LIMMAX
 10
420.0
 20
297.0
  9
$ORTHOMODE
 70
     0
  9
$REGENMODE
 70
     1
  9
$FILLMODE
 70
     1
  9
$QTEXTMODE
 70
     0
  9
$MIRRTEXT
 70
     1
  9
$DRAGMODE
 70
     2
  9
$LTSCALE
 40
1.0
  9
$OSMODE
 70
    37
  9
$ATTMODE
 70
     1
  9
$TEXTSIZE
 40
2.5
  9
$TRACEWID
 40
1.0
  9
$TEXTSTYLE
  7
STANDARD
  9
$CLAYER
  8
0
  9
$CELTYPE
  6
BYLAYER
  9
$CECOLOR
 62
   256
  9
$DIMSCALE
 40
1.0
  9
$DIMASZ
 40
2.5
  9
$DIMEXO
 40
0.625
  9
$DIMDLI
 40
3.75
  9
$DIMRND
 40
0.0
  9
$DIMDLE
 40
0.0
  9
$DIMEXE
 40
1.25
  9
$DIMTP
 40
0.0
  9
$DIMTM
 40
0.0
  9
$DIMTXT
 40
2.5
  9
$DIMCEN
 40
2.5
  9
$DIMTSZ
 40
0.0
  9
$DIMTOL
 70
     0
  9
$DIMLIM
 70
     0
  9
$DIMTIH
 70
     0
  9
$DIMTOH
 70
     0
  9
$DIMSE1
 70
     0
  9
$DIMSE2
 70
     0
  9
$DIMTAD
 70
     1
  9
$DIMZIN
 70
     8
  9
$DIMBLK
  1

  9
$DIMASO
 70
     1
  9
$DIMSHO
 70
     1
  9
$DIMPOST
  1

  9
$DIMAPOST
  1

  9
$DIMALT
 70
     0
  9
$DIMALTD
 70
     3
  9
$DIMALTF
 40
0.03937007874016
  9
$DIMLFAC
 40
1.0
  9
$DIMTOFL
 70
     1
  9
$DIMTVP
 40
0.0
  9
$DIMTIX
 70
     0
  9
$DIMSOXD
 70
     0
  9
$DIMSAH
 70
     0
  9
$DIMBLK1
  1

  9
$DIMBLK2
  1

  9
$DIMSTYLE
  2
ISO-25
  9
$DIMCLRD
 70
     0
  9
$DIMCLRE
 70
     0
  9
$DIMCLRT
 70
     0
  9
$DIMTFAC
 40
1.0
  9
$DIMGAP
 40
0.625
  9
$LUNITS
 70
     2
  9
$LUPREC
 70
     4
  9
$SKETCHINC
 40
1.0
  9
$FILLETRAD
 40
10.0
  9
$AUNITS
 70
     0
  9
$AUPREC
 70
     0
  9
$MENU
  1
.
  9
$ELEVATION
 40
0.0
  9
$PELEVATION
 40
0.0
  9
$THICKNESS
 40
0.0
  9
$LIMCHECK
 70
     0
  9
$CHAMFERA
 40
10.0
  9
$CHAMFERB
 40
10.0
  9
$SKPOLY
 70
     0
  9
$TDCREATE
 40
2305814.723483796
  9
$TDUPDATE
 40
2305814.723483808
  9
$TDINDWG
 40
0.0000000116
  9
$TDUSRTIMER
 40
0.0000000116
  9
$USRTIMER
 70
     1
  9
$ANGBASE
 50
0.0
  9
$ANGDIR
 70
     0
  9
$PDMODE
 70
     0
  9
$PDSIZE
 40
0.0
  9
$PLINEWID
 40
0.0
  9
$COORDS
 70
     1
  9
$SPLFRAME
 70
     0
  9
$SPLINETYPE
 70
     6
  9
$SPLINESEGS
 70
     8
  9
$ATTDIA
 70
     0
  9
$ATTREQ
 70
     1
  9
$HANDLING
 70
     1
  9
$HANDSEED
  5
4DB
  9
$SURFTAB1
 70
     6
  9
$SURFTAB2
 70
     6
  9
$SURFTYPE
 70
     6
  9
$SURFU
 70
     6
  9
$SURFV
 70
     6
  9
$UCSNAME
  2

  9
$UCSORG
 10
0.0
 20
0.0
 30
0.0
  9
$UCSXDIR
 10
1.0
 20
0.0
 30
0.0
  9
$UCSYDIR
 10
0.0
 20
1.0
 30
0.0
  9
$PUCSNAME
  2

  9
$PUCSORG
 10
0.0
 20
0.0
 30
0.0
  9
$PUCSXDIR
 10
1.0
 20
0.0
 30
0.0
  9
$PUCSYDIR
 10
0.0
 20
1.0
 30
0.0
  9
$USERI1
 70
     0
  9
$USERI2
 70
     0
  9
$USERI3
 70
     0
  9
$USERI4
 70
     0
  9
$USERI5
 70
     0
  9
$USERR1
 40
0.0
  9
$USERR2
 40
0.0
  9
$USERR3
 40
0.0
  9
$USERR4
 40
0.0
  9
$USERR5
 40
0.0
  9
$WORLDVIEW
 70
     1
  9
$SHADEDGE
 70
     3
  9
$SHADEDIF
 70
    70
  9
$TILEMODE
 70
     1
  9
$MAXACTVP
 70
    64
  9
$PLIMCHECK
 70
     0
  9
$PEXTMIN
 10
1.000000000000000E+20
 20
1.000000000000000E+20
 30
1.000000000000000E+20
  9
$PEXTMAX
 10
-1.000000000000000E+20
 20
-1.000000000000000E+20
 30
-1.000000000000000E+20
  9
$PLIMMIN
 10
0.0
 20
0.0
  9
$PLIMMAX
 10
420.0
 20
297.0
  9
$UNITMODE
 70
     0
  9
$VISRETAIN
 70
     1
  9
$PLINEGEN
 70
     0
  9
$PSLTSCALE
 70
     1
  0
ENDSEC
  0
SECTION
  2
TABLES
  0
TABLE
  2
VPORT
 70
     1
  0
VPORT
  2
*ACTIVE
 70
     0
 10
0.0
 20
0.0
 11
1.0
 21
1.0
 12
0.0000000000000568
 22
-5.0
 13
0.0
 23
0.0
 14
10.0
 24
10.0
 15
10.0
 25
10.0
 16
0.0
 26
0.0
 36
1.0
 17
0.0
 27
0.0
 37
0.0
 40
10.2
 41
120.6
 42
50.0
 43
0.0
 44
0.0
 50
0.0
 51
0.0
 71
     0
 72
   100
 73
     1
 74
     3
 75
     0
 76
     0
 77
     0
 78
     0
  0
ENDTAB
  0
TABLE
  2
LTYPE
 70
    11
  0
LTYPE
  2
CONTINUOUS
 70
     0
  3
Solid line
 72
    65
 73
     0
 40
0.0
  0
LTYPE
  2
BORDER
 70
     0
  3
__ __ . __ __ . __ 
 72
    65
 73
     6
 40
0.875
 49
0.25
 49
-0.125
 49
0.25
 49
-0.125
 49
0.0
 49
-0.125
  0
LTYPE
  2
CENTER
 70
     0
  3
___ _ ___ _ ___ _ _
 72
    65
 73
     4
 40
1.125
 49
0.75
 49
-0.125
 49
0.125
 49
-0.125
  0
LTYPE
  2
DASHDOT
 70
     0
  3
_._._._._._._._._._
 72
    65
 73
     4
 40
0.5
 49
0.25
 49
-0.125
 49
0.0
 49
-0.125
  0
LTYPE
  2
DASHED
 70
     0
  3
_ _ _ _ _ _ _ _ _ _
 72
    65
 73
     2
 40
0.375
 49
0.25
 49
-0.125
  0
LTYPE
  2
DIVIDE
 70
     0
  3
__..__..__..__..__.
 72
    65
 73
     6
 40
0.625
 49
0.25
 49
-0.125
 49
0.0
 49
-0.125
 49
0.0
 49
-0.125
  0
LTYPE
  2
DOT
 70
     0
  3
...................
 72
    65
 73
     2
 40
0.125
 49
0.0
 49
-0.125
  0
LTYPE
  2
HIDDEN
 70
     0
  3
__ __ __ __ __ __ _
 72
    65
 73
     2
 40
0.1875
 49
0.125
 49
-0.0625
  0
LTYPE
  2
PHANTOM
 70
     0
  3
___ _ _ ___ _ _ ___
 72
    65
 73
     6
 40
1.25
 49
0.625
 49
-0.125
 49
0.125
 49
-0.125
 49
0.125
 49
-0.125
  0
LTYPE
  2
CUTTING
 70
     0
  3
________ _ _ ______
 72
    65
 73
     6
 40
1.4675
 49
1.0
 49
-0.0725
 49
0.125
 49
-0.0725
 49
0.125
 49
-0.0725
  0
LTYPE
  2
STITCH
 70
     0
  3
_ _ _ _ _ _ _ _ _ _
 72
    65
 73
     2
 40
0.145
 49
0.0725
 49
-0.0725
  0
ENDTAB
  0
TABLE
  2
LAYER
 70
     2
  0
LAYER
  2
0
 70
     0
 62
     7
  6
CONTINUOUS
  0
LAYER
  2
LAYER1
 70
     0
 62
     7
  6
CONTINUOUS
  0
ENDTAB
  0
TABLE
  2
STYLE
 70
     1
  0
STYLE
  2
STANDARD
 70
     0
 40
0.0
 41
1.0
 50
0.0
 71
     0
 42
2.5
  3
txt
  4

  0
ENDTAB
  0
TABLE
  2
VIEW
 70
     0
  0
ENDTAB
  0
TABLE
  2
UCS
 70
     0
  0
ENDTAB
  0
TABLE
  2
APPID
 70
     2
  0
APPID
  2
ACAD
 70
     0
  0
APPID
  2
ENCORE_SOFTWARE_VIACAD
 70
     0
  0
ENDTAB
  0
TABLE
  2
DIMSTYLE
 70
     1
  0
DIMSTYLE
  2
ISO-25
 70
     0
  3

  4

  5

  6

  7

 40
1.0
 41
2.5
 42
0.625
 43
3.75
 44
1.25
 45
0.0
 46
0.0
 47
0.0
 48
0.0
140
2.5
141
2.5
142
0.0
143
0.03937007874016
144
1.0
145
0.0
146
1.0
147
0.625
 71
     0
 72
     0
 73
     0
 74
     0
 75
     0
 76
     0
 77
     1
 78
     8
170
     0
171
     3
172
     1
173
     0
174
     0
175
     0
176
     0
177
     0
178
     0
  0
ENDTAB
  0
ENDSEC
  0
SECTION
  2
BLOCKS
  0
BLOCK
  8
0
  2
$MODEL_SPACE
 70
     0
 10
0.0
 20
0.0
 30
0.0
  3
$MODEL_SPACE
  1

  0
ENDBLK
  5
21
  8
0
  0
BLOCK
 67
     1
  8
0
  2
$PAPER_SPACE
 70
     0
 10
0.0
 20
0.0
 30
0.0
  3
$PAPER_SPACE
  1

  0
ENDBLK
  5
1D
 67
     1
  8
0
  0
ENDSEC
  0
SECTION
  2
ENTITIES
  0
POLYLINE
  5
4C
  8
LAYER1
 62
     7
 66
     1
 10
0.0
 20
0.0
 30
0.0
 70
    64
 71
   116
 72
   118
  0
VERTEX
  5
4D
  8
0
 10
-601.0
 20
0.0
 30
442.0
 70
   192
  0
VERTEX
  5
4E
  8
0
 10
601.0
 20
0.0
 30
442.0
 70
   192
  0
VERTEX
  5
4F
  8
0
 10
601.0
 20
0.0
 30
2.0
 70
   192
  0
VERTEX
  5
50
  8
0
 10
-601.0
 20
0.0000000000000297
 30
2.0
 70
   192
  0
VERTEX
  5
51
  8
0
 10
-335.0
 20
0.0
 30
109.5
 70
   192
  0
VERTEX
  5
52
  8
0
 10
-265.0
 20
0.0
 30
109.5
 70
   192
  0
VERTEX
  5
53
  8
0
 10
-260.7812194824219
 20
0.0
 30
109.7551956176758
 70
   192
  0
VERTEX
  5
54
  8
0
 10
-256.6239318847656
 20
0.0
 30
110.5170288085938
 70
   192
  0
VERTEX
  5
55
  8
0
 10
-252.5888214111328
 20
0.0
 30
111.7744293212891
 70
   192
  0
VERTEX
  5
56
  8
0
 10
-248.7346954345703
 20
0.0
 30
113.509033203125
 70
   192
  0
VERTEX
  5
57
  8
0
 10
-245.1177368164062
 20
0.0
 30
115.6955642700195
 70
   192
  0
VERTEX
  5
58
  8
0
 10
-241.7907104492188
 20
0.0
 30
118.302131652832
 70
   192
  0
VERTEX
  5
59
  8
0
 10
-238.8021087646484
 20
0.0
 30
121.2907104492188
 70
   192
  0
VERTEX
  5
5A
  8
0
 10
-236.195556640625
 20
0.0
 30
124.6177291870117
 70
   192
  0
VERTEX
  5
5B
  8
0
 10
-234.0090484619141
 20
0.0
 30
128.2346801757812
 70
   192
  0
VERTEX
  5
5C
  8
0
 10
-232.2744293212891
 20
0.0
 30
132.0888214111328
 70
   192
  0
VERTEX
  5
5D
  8
0
 10
-231.0170288085938
 20
0.0
 30
136.1239471435547
 70
   192
  0
VERTEX
  5
5E
  8
0
 10
-230.2551727294922
 20
0.0
 30
140.2812194824219
 70
   192
  0
VERTEX
  5
5F
  8
0
 10
-230.0000152587891
 20
0.0
 30
144.5
 70
   192
  0
VERTEX
  5
60
  8
0
 10
-230.0000152587891
 20
0.0
 30
299.5
 70
   192
  0
VERTEX
  5
61
  8
0
 10
-230.2551727294922
 20
0.0
 30
303.7187805175781
 70
   192
  0
VERTEX
  5
62
  8
0
 10
-231.0170288085938
 20
0.0
 30
307.8760375976562
 70
   192
  0
VERTEX
  5
63
  8
0
 10
-232.2744293212891
 20
0.0
 30
311.9111633300781
 70
   192
  0
VERTEX
  5
64
  8
0
 10
-234.0090484619141
 20
0.0
 30
315.7653198242188
 70
   192
  0
VERTEX
  5
65
  8
0
 10
-236.195556640625
 20
0.0
 30
319.3822631835938
 70
   192
  0
VERTEX
  5
66
  8
0
 10
-238.8021087646484
 20
0.0
 30
322.7092895507812
 70
   192
  0
VERTEX
  5
67
  8
0
 10
-241.7907104492188
 20
0.0
 30
325.6978759765625
 70
   192
  0
VERTEX
  5
68
  8
0
 10
-245.1177368164062
 20
0.0
 30
328.3044128417969
 70
   192
  0
VERTEX
  5
69
  8
0
 10
-248.7346954345703
 20
0.0
 30
330.490966796875
 70
   192
  0
VERTEX
  5
6A
  8
0
 10
-252.5888214111328
 20
0.0
 30
332.2255859375
 70
   192
  0
VERTEX
  5
6B
  8
0
 10
-256.6239318847656
 20
0.0
 30
333.4829711914062
 70
   192
  0
VERTEX
  5
6C
  8
0
 10
-260.7812194824219
 20
0.0
 30
334.2448120117188
 70
   192
  0
VERTEX
  5
6D
  8
0
 10
-265.0
 20
0.0
 30
334.5
 70
   192
  0
VERTEX
  5
6E
  8
0
 10
-335.0
 20
0.0
 30
334.5
 70
   192
  0
VERTEX
  5
6F
  8
0
 10
-339.2187805175781
 20
0.0
 30
334.2448120117188
 70
   192
  0
VERTEX
  5
70
  8
0
 10
-343.3760375976562
 20
0.0
 30
333.4829711914062
 70
   192
  0
VERTEX
  5
71
  8
0
 10
-347.4111938476562
 20
0.0
 30
332.2255859375
 70
   192
  0
VERTEX
  5
72
  8
0
 10
-351.2653198242188
 20
0.0
 30
330.490966796875
 70
   192
  0
VERTEX
  5
73
  8
0
 10
-354.8822631835938
 20
0.0
 30
328.3044128417969
 70
   192
  0
VERTEX
  5
74
  8
0
 10
-358.2092895507812
 20
0.0
 30
325.6978759765625
 70
   192
  0
VERTEX
  5
75
  8
0
 10
-361.1978759765625
 20
0.0
 30
322.7092895507812
 70
   192
  0
VERTEX
  5
76
  8
0
 10
-363.804443359375
 20
0.0
 30
319.3822631835938
 70
   192
  0
VERTEX
  5
77
  8
0
 10
-365.990966796875
 20
0.0
 30
315.7653198242188
 70
   192
  0
VERTEX
  5
78
  8
0
 10
-367.7255554199219
 20
0.0
 30
311.9111633300781
 70
   192
  0
VERTEX
  5
79
  8
0
 10
-368.9829406738281
 20
0.0
 30
307.8760375976562
 70
   192
  0
VERTEX
  5
7A
  8
0
 10
-369.7448120117188
 20
0.0
 30
303.7187805175781
 70
   192
  0
VERTEX
  5
7B
  8
0
 10
-370.0
 20
0.0
 30
299.5
 70
   192
  0
VERTEX
  5
7C
  8
0
 10
-370.0
 20
0.0
 30
144.5
 70
   192
  0
VERTEX
  5
7D
  8
0
 10
-369.7448120117188
 20
0.0
 30
140.2812194824219
 70
   192
  0
VERTEX
  5
7E
  8
0
 10
-368.9829406738281
 20
0.0
 30
136.1239471435547
 70
   192
  0
VERTEX
  5
7F
  8
0
 10
-367.7255554199219
 20
0.0
 30
132.0888214111328
 70
   192
  0
VERTEX
  5
80
  8
0
 10
-365.990966796875
 20
0.0
 30
128.2346801757812
 70
   192
  0
VERTEX
  5
81
  8
0
 10
-363.804443359375
 20
0.0
 30
124.6177291870117
 70
   192
  0
VERTEX
  5
82
  8
0
 10
-361.1978759765625
 20
0.0
 30
121.2907104492188
 70
   192
  0
VERTEX
  5
83
  8
0
 10
-358.2092895507812
 20
0.0
 30
118.302131652832
 70
   192
  0
VERTEX
  5
84
  8
0
 10
-354.8822631835938
 20
0.0
 30
115.6955642700195
 70
   192
  0
VERTEX
  5
85
  8
0
 10
-351.2653198242188
 20
0.0
 30
113.509033203125
 70
   192
  0
VERTEX
  5
86
  8
0
 10
-347.4111938476562
 20
0.0
 30
111.7744293212891
 70
   192
  0
VERTEX
  5
87
  8
0
 10
-343.3760375976562
 20
0.0
 30
110.5170288085938
 70
   192
  0
VERTEX
  5
88
  8
0
 10
-339.2187805175781
 20
0.0
 30
109.7551956176758
 70
   192
  0
VERTEX
  5
89
  8
0
 10
335.0
 20
0.0
 30
109.5
 70
   192
  0
VERTEX
  5
8A
  8
0
 10
339.2187805175781
 20
0.0
 30
109.7551956176758
 70
   192
  0
VERTEX
  5
8B
  8
0
 10
343.3760375976562
 20
0.0
 30
110.5170288085938
 70
   192
  0
VERTEX
  5
8C
  8
0
 10
347.4111938476562
 20
0.0
 30
111.7744293212891
 70
   192
  0
VERTEX
  5
8D
  8
0
 10
351.2653198242188
 20
0.0
 30
113.509033203125
 70
   192
  0
VERTEX
  5
8E
  8
0
 10
354.8822631835938
 20
0.0
 30
115.6955642700195
 70
   192
  0
VERTEX
  5
8F
  8
0
 10
358.2092895507812
 20
0.0
 30
118.302131652832
 70
   192
  0
VERTEX
  5
90
  8
0
 10
361.1978759765625
 20
0.0
 30
121.2907104492188
 70
   192
  0
VERTEX
  5
91
  8
0
 10
363.804443359375
 20
0.0
 30
124.6177291870117
 70
   192
  0
VERTEX
  5
92
  8
0
 10
365.990966796875
 20
0.0
 30
128.2346801757812
 70
   192
  0
VERTEX
  5
93
  8
0
 10
367.7255554199219
 20
0.0
 30
132.0888214111328
 70
   192
  0
VERTEX
  5
94
  8
0
 10
368.9829406738281
 20
0.0
 30
136.1239471435547
 70
   192
  0
VERTEX
  5
95
  8
0
 10
369.7448120117188
 20
0.0
 30
140.2812194824219
 70
   192
  0
VERTEX
  5
96
  8
0
 10
370.0
 20
0.0
 30
144.5
 70
   192
  0
VERTEX
  5
97
  8
0
 10
370.0
 20
0.0
 30
299.5
 70
   192
  0
VERTEX
  5
98
  8
0
 10
369.7448120117188
 20
0.0
 30
303.7187805175781
 70
   192
  0
VERTEX
  5
99
  8
0
 10
368.9829406738281
 20
0.0
 30
307.8760375976562
 70
   192
  0
VERTEX
  5
9A
  8
0
 10
367.7255554199219
 20
0.0
 30
311.9111633300781
 70
   192
  0
VERTEX
  5
9B
  8
0
 10
365.990966796875
 20
0.0
 30
315.7653198242188
 70
   192
  0
VERTEX
  5
9C
  8
0
 10
363.804443359375
 20
0.0
 30
319.3822631835938
 70
   192
  0
VERTEX
  5
9D
  8
0
 10
361.1978759765625
 20
0.0
 30
322.7092895507812
 70
   192
  0
VERTEX
  5
9E
  8
0
 10
358.2092895507812
 20
0.0
 30
325.6978759765625
 70
   192
  0
VERTEX
  5
9F
  8
0
 10
354.8822631835938
 20
0.0
 30
328.3044128417969
 70
   192
  0
VERTEX
  5
A0
  8
0
 10
351.2653198242188
 20
0.0
 30
330.490966796875
 70
   192
  0
VERTEX
  5
A1
  8
0
 10
347.4111938476562
 20
0.0
 30
332.2255859375
 70
   192
  0
VERTEX
  5
A2
  8
0
 10
343.3760375976562
 20
0.0
 30
333.4829711914062
 70
   192
  0
VERTEX
  5
A3
  8
0
 10
339.2187805175781
 20
0.0
 30
334.2448120117188
 70
   192
  0
VERTEX
  5
A4
  8
0
 10
335.0
 20
0.0
 30
334.5
 70
   192
  0
VERTEX
  5
A5
  8
0
 10
265.0
 20
0.0
 30
334.5
 70
   192
  0
VERTEX
  5
A6
  8
0
 10
260.7812194824219
 20
0.0
 30
334.2448120117188
 70
   192
  0
VERTEX
  5
A7
  8
0
 10
256.6239318847656
 20
0.0
 30
333.4829711914062
 70
   192
  0
VERTEX
  5
A8
  8
0
 10
252.5888214111328
 20
0.0
 30
332.2255859375
 70
   192
  0
VERTEX
  5
A9
  8
0
 10
248.7346954345703
 20
0.0
 30
330.490966796875
 70
   192
  0
VERTEX
  5
AA
  8
0
 10
245.1177368164062
 20
0.0
 30
328.3044128417969
 70
   192
  0
VERTEX
  5
AB
  8
0
 10
241.7907104492188
 20
0.0
 30
325.6978759765625
 70
   192
  0
VERTEX
  5
AC
  8
0
 10
238.8021087646484
 20
0.0
 30
322.7092895507812
 70
   192
  0
VERTEX
  5
AD
  8
0
 10
236.195556640625
 20
0.0
 30
319.3822631835938
 70
   192
  0
VERTEX
  5
AE
  8
0
 10
234.0090484619141
 20
0.0
 30
315.7653198242188
 70
   192
  0
VERTEX
  5
AF
  8
0
 10
232.2744293212891
 20
0.0
 30
311.9111633300781
 70
   192
  0
VERTEX
  5
B0
  8
0
 10
231.0170288085938
 20
0.0
 30
307.8760375976562
 70
   192
  0
VERTEX
  5
B1
  8
0
 10
230.2551727294922
 20
0.0
 30
303.7187805175781
 70
   192
  0
VERTEX
  5
B2
  8
0
 10
230.0000152587891
 20
0.0
 30
299.5
 70
   192
  0
VERTEX
  5
B3
  8
0
 10
230.0000152587891
 20
0.0
 30
144.5
 70
   192
  0
VERTEX
  5
B4
  8
0
 10
230.2551727294922
 20
0.0
 30
140.2812194824219
 70
   192
  0
VERTEX
  5
B5
  8
0
 10
231.0170288085938
 20
0.0
 30
136.1239471435547
 70
   192
  0
VERTEX
  5
B6
  8
0
 10
232.2744293212891
 20
0.0
 30
132.0888214111328
 70
   192
  0
VERTEX
  5
B7
  8
0
 10
234.0090484619141
 20
0.0
 30
128.2346801757812
 70
   192
  0
VERTEX
  5
B8
  8
0
 10
236.195556640625
 20
0.0
 30
124.6177291870117
 70
   192
  0
VERTEX
  5
B9
  8
0
 10
238.8021087646484
 20
0.0
 30
121.2907104492188
 70
   192
  0
VERTEX
  5
BA
  8
0
 10
241.7907104492188
 20
0.0
 30
118.302131652832
 70
   192
  0
VERTEX
  5
BB
  8
0
 10
245.1177368164062
 20
0.0
 30
115.6955642700195
 70
   192
  0
VERTEX
  5
BC
  8
0
 10
248.7346954345703
 20
0.0
 30
113.509033203125
 70
   192
  0
VERTEX
  5
BD
  8
0
 10
252.5888214111328
 20
0.0
 30
111.7744293212891
 70
   192
  0
VERTEX
  5
BE
  8
0
 10
256.6239318847656
 20
0.0
 30
110.5170288085938
 70
   192
  0
VERTEX
  5
BF
  8
0
 10
260.7812194824219
 20
0.0
 30
109.7551956176758
 70
   192
  0
VERTEX
  5
C0
  8
0
 10
265.0
 20
0.0
 30
109.5
 70
   192
  0
VERTEX
  5
C1
  8
0
 10
0.0
 20
0.0
 30
0.0
 70
   128
 71
    89
 72
    90
 73
     2
  0
VERTEX
  5
C2
  8
0
 10
0.0
 20
0.0
 30
0.0
 70
   128
 71
    88
 72
     2
 73
    87
  0
VERTEX
  5
C3
  8
0
 10
0.0
 20
0.0
 30
0.0
 70
   128
 71
    88
 72
    89
 73
     2
  0
VERTEX
  5
C4
  8
0
 10
0.0
 20
0.0
 30
0.0
 70
   128
 71
    72
 72
    73
 73
     3
  0
VERTEX
  5
C5
  8
0
 10
0.0
 20
0.0
 30
0.0
 70
   128
 71
    71
 72
     3
 73
    70
  0
VERTEX
  5
C6
  8
0
 10
0.0
 20
0.0
 30
0.0
 70
   128
 71
    71
 72
    72
 73
     3
  0
VERTEX
  5
C7
  8
0
 10
0.0
 20
0.0
 30
0.0
 70
   128
 71
     6
 72
     7
 73
     4
  0
VERTEX
  5
C8
  8
0
 10
0.0
 20
0.0
 30
0.0
 70
   128
 71
     5
 72
     4
 73
    60
  0
VERTEX
  5
C9
  8
0
 10
0.0
 20
0.0
 30
0.0
 70
   128
 71
     5
 72
     6
 73
     4
  0
VERTEX
  5
CA
  8
0
 10
0.0
 20
0.0
 30
0.0
 70
   128
 71
    46
 72
    47
 73
     1
  0
VERTEX
  5
CB
  8
0
 10
0.0
 20
0.0
 30
0.0
 70
   128
 71
    45
 72
     1
 73
    44
  0
VERTEX
  5
CC
  8
0
 10
0.0
 20
0.0
 30
0.0
 70
   128
 71
    45
 72
    46
 73
     1
  0
VERTEX
  5
CD
  8
0
 10
0.0
 20
0.0
 30
0.0
 70
   128
 71
     1
 72
     2
 73
    32
  0
VERTEX
  5
CE
  8
0
 10
0.0
 20
0.0
 30
0.0
 70
   128
 71
    33
 72
     1
 73
    32
  0
VERTEX
  5
CF
  8
0
 10
0.0
 20
0.0
 30
0.0
 70
   128
 71
    33
 72
    34
 73
     1
  0
VERTEX
  5
D0
  8
0
 10
0.0
 20
0.0
 30
0.0
 70
   128
 71
     1
 72
    34
 73
    35
  0
VERTEX
  5
D1
  8
0
 10
0.0
 20
0.0
 30
0.0
 70
   128
 71
    36
 72
     1
 73
    35
  0
VERTEX
  5
D2
  8
0
 10
0.0
 20
0.0
 30
0.0
 70
   128
 71
    36
 72
    37
 73
     1
  0
VERTEX
  5
D3
  8
0
 10
0.0
 20
0.0
 30
0.0
 70
   128
 71
     1
 72
    37
 73
    38
  0
VERTEX
  5
D4
  8
0
 10
0.0
 20
0.0
 30
0.0
 70
   128
 71
    39
 72
     1
 73
    38
  0
VERTEX
  5
D5
  8
0
 10
0.0
 20
0.0
 30
0.0
 70
   128
 71
    39
 72
    40
 73
     1
  0
VERTEX
  5
D6
  8
0
 10
0.0
 20
0.0
 30
0.0
 70
   128
 71
     1
 72
    40
 73
    41
  0
VERTEX
  5
D7
  8
0
 10
0.0
 20
0.0
 30
0.0
 70
   128
 71
    42
 72
     1
 73
    41
  0
VERTEX
  5
D8
  8
0
 10
0.0
 20
0.0
 30
0.0
 70
   128
 71
    42
 72
    43
 73
     1
  0
VERTEX
  5
D9
  8
0
 10
0.0
 20
0.0
 30
0.0
 70
   128
 71
     1
 72
    43
 73
    44
  0
VERTEX
  5
DA
  8
0
 10
0.0
 20
0.0
 30
0.0
 70
   128
 71
    32
 72
    90
 73
    31
  0
VERTEX
  5
DB
  8
0
 10
0.0
 20
0.0
 30
0.0
 70
   128
 71
    32
 72
     2
 73
    90
  0
VERTEX
  5
DC
  8
0
 10
0.0
 20
0.0
 30
0.0
 70
   128
 71
    31
 72
    91
 73
    30
  0
VERTEX
  5
DD
  8
0
 10
0.0
 20
0.0
 30
0.0
 70
   128
 71
    31
 72
    90
 73
    91
  0
VERTEX
  5
DE
  8
0
 10
0.0
 20
0.0
 30
0.0
 70
   128
 71
    30
 72
    92
 73
    29
  0
VERTEX
  5
DF
  8
0
 10
0.0
 20
0.0
 30
0.0
 70
   128
 71
    30
 72
    91
 73
    92
  0
VERTEX
  5
E0
  8
0
 10
0.0
 20
0.0
 30
0.0
 70
   128
 71
    29
 72
    93
 73
    28
  0
VERTEX
  5
E1
  8
0
 10
0.0
 20
0.0
 30
0.0
 70
   128
 71
    29
 72
    92
 73
    93
  0
VERTEX
  5
E2
  8
0
 10
0.0
 20
0.0
 30
0.0
 70
   128
 71
    28
 72
    94
 73
    27
  0
VERTEX
  5
E3
  8
0
 10
0.0
 20
0.0
 30
0.0
 70
   128
 71
    28
 72
    93
 73
    94
  0
VERTEX
  5
E4
  8
0
 10
0.0
 20
0.0
 30
0.0
 70
   128
 71
    27
 72
    95
 73
    26
  0
VERTEX
  5
E5
  8
0
 10
0.0
 20
0.0
 30
0.0
 70
   128
 71
    27
 72
    94
 73
    95
  0
VERTEX
  5
E6
  8
0
 10
0.0
 20
0.0
 30
0.0
 70
   128
 71
    26
 72
    96
 73
    25
  0
VERTEX
  5
E7
  8
0
 10
0.0
 20
0.0
 30
0.0
 70
   128
 71
    26
 72
    95
 73
    96
  0
VERTEX
  5
E8
  8
0
 10
0.0
 20
0.0
 30
0.0
 70
   128
 71
    25
 72
    97
 73
    24
  0
VERTEX
  5
E9
  8
0
 10
0.0
 20
0.0
 30
0.0
 70
   128
 71
    25
 72
    96
 73
    97
  0
VERTEX
  5
EA
  8
0
 10
0.0
 20
0.0
 30
0.0
 70
   128
 71
    24
 72
    98
 73
    23
  0
VERTEX
  5
EB
  8
0
 10
0.0
 20
0.0
 30
0.0
 70
   128
 71
    24
 72
    97
 73
    98
  0
VERTEX
  5
EC
  8
0
 10
0.0
 20
0.0
 30
0.0
 70
   128
 71
    23
 72
    99
 73
    22
  0
VERTEX
  5
ED
  8
0
 10
0.0
 20
0.0
 30
0.0
 70
   128
 71
    23
 72
    98
 73
    99
  0
VERTEX
  5
EE
  8
0
 10
0.0
 20
0.0
 30
0.0
 70
   128
 71
    22
 72
   100
 73
    21
  0
VERTEX
  5
EF
  8
0
 10
0.0
 20
0.0
 30
0.0
 70
   128
 71
    22
 72
    99
 73
   100
  0
VERTEX
  5
F0
  8
0
 10
0.0
 20
0.0
 30
0.0
 70
   128
 71
    21
 72
   101
 73
    20
  0
VERTEX
  5
F1
  8
0
 10
0.0
 20
0.0
 30
0.0
 70
   128
 71
    21
 72
   100
 73
   101
  0
VERTEX
  5
F2
  8
0
 10
0.0
 20
0.0
 30
0.0
 70
   128
 71
    47
 72
    48
 73
     1
  0
VERTEX
  5
F3
  8
0
 10
0.0
 20
0.0
 30
0.0
 70
   128
 71
     1
 72
    48
 73
     4
  0
VERTEX
  5
F4
  8
0
 10
0.0
 20
0.0
 30
0.0
 70
   128
 71
     4
 72
    48
 73
    49
  0
VERTEX
  5
F5
  8
0
 10
0.0
 20
0.0
 30
0.0
 70
   128
 71
    50
 72
     4
 73
    49
  0
VERTEX
  5
F6
  8
0
 10
0.0
 20
0.0
 30
0.0
 70
   128
 71
    50
 72
    51
 73
     4
  0
VERTEX
  5
F7
  8
0
 10
0.0
 20
0.0
 30
0.0
 70
   128
 71
     4
 72
    51
 73
    52
  0
VERTEX
  5
F8
  8
0
 10
0.0
 20
0.0
 30
0.0
 70
   128
 71
    53
 72
     4
 73
    52
  0
VERTEX
  5
F9
  8
0
 10
0.0
 20
0.0
 30
0.0
 70
   128
 71
    53
 72
    54
 73
     4
  0
VERTEX
  5
FA
  8
0
 10
0.0
 20
0.0
 30
0.0
 70
   128
 71
     4
 72
    54
 73
    55
  0
VERTEX
  5
FB
  8
0
 10
0.0
 20
0.0
 30
0.0
 70
   128
 71
    56
 72
     4
 73
    55
  0
VERTEX
  5
FC
  8
0
 10
0.0
 20
0.0
 30
0.0
 70
   128
 71
    56
 72
    57
 73
     4
  0
VERTEX
  5
FD
  8
0
 10
0.0
 20
0.0
 30
0.0
 70
   128
 71
     4
 72
    57
 73
    58
  0
VERTEX
  5
FE
  8
0
 10
0.0
 20
0.0
 30
0.0
 70
   128
 71
    59
 72
     4
 73
    58
  0
VERTEX
  5
FF
  8
0
 10
0.0
 20
0.0
 30
0.0
 70
   128
 71
    59
 72
    60
 73
     4
  0
VERTEX
  5
100
  8
0
 10
0.0
 20
0.0
 30
0.0
 70
   128
 71
   116
 72
    61
 73
     3
  0
VERTEX
  5
101
  8
0
 10
0.0
 20
0.0
 30
0.0
 70
   128
 71
   115
 72
     3
 73
     4
  0
VERTEX
  5
102
  8
0
 10
0.0
 20
0.0
 30
0.0
 70
   128
 71
     7
 72
   115
 73
     4
  0
VERTEX
  5
103
  8
0
 10
0.0
 20
0.0
 30
0.0
 70
   128
 71
     7
 72
   114
 73
   115
  0
VERTEX
  5
104
  8
0
 10
0.0
 20
0.0
 30
0.0
 70
   128
 71
     7
 72
     8
 73
   114
  0
VERTEX
  5
105
  8
0
 10
0.0
 20
0.0
 30
0.0
 70
   128
 71
   114
 72
     8
 73
   113
  0
VERTEX
  5
106
  8
0
 10
0.0
 20
0.0
 30
0.0
 70
   128
 71
   113
 72
     8
 73
     9
  0
VERTEX
  5
107
  8
0
 10
0.0
 20
0.0
 30
0.0
 70
   128
 71
   112
 72
     9
 73
    10
  0
VERTEX
  5
108
  8
0
 10
0.0
 20
0.0
 30
0.0
 70
   128
 71
   111
 72
    10
 73
    11
  0
VERTEX
  5
109
  8
0
 10
0.0
 20
0.0
 30
0.0
 70
   128
 71
   110
 72
    11
 73
    12
  0
VERTEX
  5
10A
  8
0
 10
0.0
 20
0.0
 30
0.0
 70
   128
 71
   109
 72
    12
 73
    13
  0
VERTEX
  5
10B
  8
0
 10
0.0
 20
0.0
 30
0.0
 70
   128
 71
   108
 72
    13
 73
    14
  0
VERTEX
  5
10C
  8
0
 10
0.0
 20
0.0
 30
0.0
 70
   128
 71
   107
 72
    14
 73
    15
  0
VERTEX
  5
10D
  8
0
 10
0.0
 20
0.0
 30
0.0
 70
   128
 71
   106
 72
    15
 73
    16
  0
VERTEX
  5
10E
  8
0
 10
0.0
 20
0.0
 30
0.0
 70
   128
 71
   105
 72
    16
 73
    17
  0
VERTEX
  5
10F
  8
0
 10
0.0
 20
0.0
 30
0.0
 70
   128
 71
   104
 72
    17
 73
    18
  0
VERTEX
  5
110
  8
0
 10
0.0
 20
0.0
 30
0.0
 70
   128
 71
   103
 72
    18
 73
    19
  0
VERTEX
  5
111
  8
0
 10
0.0
 20
0.0
 30
0.0
 70
   128
 71
   102
 72
    19
 73
    20
  0
VERTEX
  5
112
  8
0
 10
0.0
 20
0.0
 30
0.0
 70
   128
 71
   101
 72
   102
 73
    20
  0
VERTEX
  5
113
  8
0
 10
0.0
 20
0.0
 30
0.0
 70
   128
 71
    61
 72
    62
 73
     3
  0
VERTEX
  5
114
  8
0
 10
0.0
 20
0.0
 30
0.0
 70
   128
 71
     3
 72
    62
 73
    63
  0
VERTEX
  5
115
  8
0
 10
0.0
 20
0.0
 30
0.0
 70
   128
 71
    64
 72
     3
 73
    63
  0
VERTEX
  5
116
  8
0
 10
0.0
 20
0.0
 30
0.0
 70
   128
 71
    64
 72
    65
 73
     3
  0
VERTEX
  5
117
  8
0
 10
0.0
 20
0.0
 30
0.0
 70
   128
 71
     3
 72
    65
 73
    66
  0
VERTEX
  5
118
  8
0
 10
0.0
 20
0.0
 30
0.0
 70
   128
 71
    67
 72
     3
 73
    66
  0
VERTEX
  5
119
  8
0
 10
0.0
 20
0.0
 30
0.0
 70
   128
 71
    67
 72
    68
 73
     3
  0
VERTEX
  5
11A
  8
0
 10
0.0
 20
0.0
 30
0.0
 70
   128
 71
     3
 72
    68
 73
    69
  0
VERTEX
  5
11B
  8
0
 10
0.0
 20
0.0
 30
0.0
 70
   128
 71
    70
 72
     3
 73
    69
  0
VERTEX
  5
11C
  8
0
 10
0.0
 20
0.0
 30
0.0
 70
   128
 71
    73
 72
    74
 73
     3
  0
VERTEX
  5
11D
  8
0
 10
0.0
 20
0.0
 30
0.0
 70
   128
 71
     3
 72
    74
 73
     2
  0
VERTEX
  5
11E
  8
0
 10
0.0
 20
0.0
 30
0.0
 70
   128
 71
     2
 72
    74
 73
    75
  0
VERTEX
  5
11F
  8
0
 10
0.0
 20
0.0
 30
0.0
 70
   128
 71
    76
 72
     2
 73
    75
  0
VERTEX
  5
120
  8
0
 10
0.0
 20
0.0
 30
0.0
 70
   128
 71
    76
 72
    77
 73
     2
  0
VERTEX
  5
121
  8
0
 10
0.0
 20
0.0
 30
0.0
 70
   128
 71
     2
 72
    77
 73
    78
  0
VERTEX
  5
122
  8
0
 10
0.0
 20
0.0
 30
0.0
 70
   128
 71
    79
 72
     2
 73
    78
  0
VERTEX
  5
123
  8
0
 10
0.0
 20
0.0
 30
0.0
 70
   128
 71
    79
 72
    80
 73
     2
  0
VERTEX
  5
124
  8
0
 10
0.0
 20
0.0
 30
0.0
 70
   128
 71
     2
 72
    80
 73
    81
  0
VERTEX
  5
125
  8
0
 10
0.0
 20
0.0
 30
0.0
 70
   128
 71
    82
 72
     2
 73
    81
  0
VERTEX
  5
126
  8
0
 10
0.0
 20
0.0
 30
0.0
 70
   128
 71
    82
 72
    83
 73
     2
  0
VERTEX
  5
127
  8
0
 10
0.0
 20
0.0
 30
0.0
 70
   128
 71
     2
 72
    83
 73
    84
  0
VERTEX
  5
128
  8
0
 10
0.0
 20
0.0
 30
0.0
 70
   128
 71
    85
 72
     2
 73
    84
  0
VERTEX
  5
129
  8
0
 10
0.0
 20
0.0
 30
0.0
 70
   128
 71
    85
 72
    86
 73
     2
  0
VERTEX
  5
12A
  8
0
 10
0.0
 20
0.0
 30
0.0
 70
   128
 71
     2
 72
    86
 73
    87
  0
VERTEX
  5
12B
  8
0
 10
0.0
 20
0.0
 30
0.0
 70
   128
 71
   102
 72
   103
 73
    19
  0
VERTEX
  5
12C
  8
0
 10
0.0
 20
0.0
 30
0.0
 70
   128
 71
   103
 72
   104
 73
    18
  0
VERTEX
  5
12D
  8
0
 10
0.0
 20
0.0
 30
0.0
 70
   128
 71
   104
 72
   105
 73
    17
  0
VERTEX
  5
12E
  8
0
 10
0.0
 20
0.0
 30
0.0
 70
   128
 71
   105
 72
   106
 73
    16
  0
VERTEX
  5
12F
  8
0
 10
0.0
 20
0.0
 30
0.0
 70
   128
 71
   106
 72
   107
 73
    15
  0
VERTEX
  5
130
  8
0
 10
0.0
 20
0.0
 30
0.0
 70
   128
 71
   107
 72
   108
 73
    14
  0
VERTEX
  5
131
  8
0
 10
0.0
 20
0.0
 30
0.0
 70
   128
 71
   108
 72
   109
 73
    13
  0
VERTEX
  5
132
  8
0
 10
0.0
 20
0.0
 30
0.0
 70
   128
 71
   109
 72
   110
 73
    12
  0
VERTEX
  5
133
  8
0
 10
0.0
 20
0.0
 30
0.0
 70
   128
 71
   110
 72
   111
 73
    11
  0
VERTEX
  5
134
  8
0
 10
0.0
 20
0.0
 30
0.0
 70
   128
 71
   111
 72
   112
 73
    10
  0
VERTEX
  5
135
  8
0
 10
0.0
 20
0.0
 30
0.0
 70
   128
 71
   112
 72
   113
 73
     9
  0
VERTEX
  5
136
  8
0
 10
0.0
 20
0.0
 30
0.0
 70
   128
 71
   115
 72
   116
 73
     3
  0
SEQEND
  5
137
  8
LAYER1
 62
     7
  0
POLYLINE
  5
138
  8
LAYER1
 62
     7
 66
     1
 10
0.0
 20
0.0
 30
0.0
 70
    64
 71
    28
 72
    26
  0
VERTEX
  5
139
  8
0
 10
-335.0
 20
-10.0
 30
109.5
 70
   192
  0
VERTEX
  5
13A
  8
0
 10
-335.0
 20
0.0
 30
109.5
 70
   192
  0
VERTEX
  5
13B
  8
0
 10
-339.2187805175781
 20
0.0
 30
109.7551956176758
 70
   192
  0
VERTEX
  5
13C
  8
0
 10
-343.3760375976562
 20
0.0
 30
110.5170288085938
 70
   192
  0
VERTEX
  5
13D
  8
0
 10
-347.4111938476562
 20
0.0
 30
111.7744293212891
 70
   192
  0
VERTEX
  5
13E
  8
0
 10
-351.2653198242188
 20
0.0
 30
113.509033203125
 70
   192
  0
VERTEX
  5
13F
  8
0
 10
-354.8822631835938
 20
0.0
 30
115.6955642700195
 70
   192
  0
VERTEX
  5
140
  8
0
 10
-358.2092895507812
 20
0.0
 30
118.302131652832
 70
   192
  0
VERTEX
  5
141
  8
0
 10
-361.1978759765625
 20
0.0
 30
121.2907104492188
 70
   192
  0
VERTEX
  5
142
  8
0
 10
-363.804443359375
 20
0.0
 30
124.6177291870117
 70
   192
  0
VERTEX
  5
143
  8
0
 10
-365.990966796875
 20
0.0
 30
128.2346801757812
 70
   192
  0
VERTEX
  5
144
  8
0
 10
-367.7255554199219
 20
0.0
 30
132.0888214111328
 70
   192
  0
VERTEX
  5
145
  8
0
 10
-368.9829406738281
 20
0.0
 30
136.1239471435547
 70
   192
  0
VERTEX
  5
146
  8
0
 10
-369.7448120117188
 20
0.0
 30
140.2812194824219
 70
   192
  0
VERTEX
  5
147
  8
0
 10
-370.0
 20
0.0
 30
144.5
 70
   192
  0
VERTEX
  5
148
  8
0
 10
-370.0
 20
-10.0
 30
144.5
 70
   192
  0
VERTEX
  5
149
  8
0
 10
-369.7448120117188
 20
-10.0
 30
140.2812194824219
 70
   192
  0
VERTEX
  5
14A
  8
0
 10
-368.9829406738281
 20
-10.0
 30
136.1239471435547
 70
   192
  0
VERTEX
  5
14B
  8
0
 10
-367.7255554199219
 20
-10.0
 30
132.0888214111328
 70
   192
  0
VERTEX
  5
14C
  8
0
 10
-365.990966796875
 20
-10.0
 30
128.2346801757812
 70
   192
  0
VERTEX
  5
14D
  8
0
 10
-363.804443359375
 20
-10.0
 30
124.6177291870117
 70
   192
  0
VERTEX
  5
14E
  8
0
 10
-361.1978759765625
 20
-10.0
 30
121.2907104492188
 70
   192
  0
VERTEX
  5
14F
  8
0
 10
-358.2092895507812
 20
-10.0
 30
118.302131652832
 70
   192
  0
VERTEX
  5
150
  8
0
 10
-354.8822631835938
 20
-10.0
 30
115.6955642700195
 70
   192
  0
VERTEX
  5
151
  8
0
 10
-351.2653198242188
 20
-10.0
 30
113.509033203125
 70
   192
  0
VERTEX
  5
152
  8
0
 10
-347.4111938476562
 20
-10.0
 30
111.7744293212891
 70
   192
  0
VERTEX
  5
153
  8
0
 10
-343.3760375976562
 20
-10.0
 30
110.5170288085938
 70
   192
  0
VERTEX
  5
154
  8
0
 10
-339.2187805175781
 20
-10.0
 30
109.7551956176758
 70
   192
  0
VERTEX
  5
155
  8
0
 10
0.0
 20
0.0
 30
0.0
 70
   128
 71
     1
 72
     2
 73
    28
  0
VERTEX
  5
156
  8
0
 10
0.0
 20
0.0
 30
0.0
 70
   128
 71
    28
 72
     2
 73
     3
  0
VERTEX
  5
157
  8
0
 10
0.0
 20
0.0
 30
0.0
 70
   128
 71
    27
 72
     3
 73
     4
  0
VERTEX
  5
158
  8
0
 10
0.0
 20
0.0
 30
0.0
 70
   128
 71
    26
 72
     4
 73
     5
  0
VERTEX
  5
159
  8
0
 10
0.0
 20
0.0
 30
0.0
 70
   128
 71
    25
 72
     5
 73
     6
  0
VERTEX
  5
15A
  8
0
 10
0.0
 20
0.0
 30
0.0
 70
   128
 71
    24
 72
     6
 73
     7
  0
VERTEX
  5
15B
  8
0
 10
0.0
 20
0.0
 30
0.0
 70
   128
 71
    23
 72
     7
 73
     8
  0
VERTEX
  5
15C
  8
0
 10
0.0
 20
0.0
 30
0.0
 70
   128
 71
    22
 72
     8
 73
     9
  0
VERTEX
  5
15D
  8
0
 10
0.0
 20
0.0
 30
0.0
 70
   128
 71
    21
 72
     9
 73
    10
  0
VERTEX
  5
15E
  8
0
 10
0.0
 20
0.0
 30
0.0
 70
   128
 71
    20
 72
    10
 73
    11
  0
VERTEX
  5
15F
  8
0
 10
0.0
 20
0.0
 30
0.0
 70
   128
 71
    19
 72
    11
 73
    12
  0
VERTEX
  5
160
  8
0
 10
0.0
 20
0.0
 30
0.0
 70
   128
 71
    18
 72
    12
 73
    13
  0
VERTEX
  5
161
  8
0
 10
0.0
 20
0.0
 30
0.0
 70
   128
 71
    17
 72
    13
 73
    14
  0
VERTEX
  5
162
  8
0
 10
0.0
 20
0.0
 30
0.0
 70
   128
 71
    16
 72
    14
 73
    15
  0
VERTEX
  5
163
  8
0
 10
0.0
 20
0.0
 30
0.0
 70
   128
 71
    16
 72
    17
 73
    14
  0
VERTEX
  5
164
  8
0
 10
0.0
 20
0.0
 30
0.0
 70
   128
 71
    17
 72
    18
 73
    13
  0
VERTEX
  5
165
  8
0
 10
0.0
 20
0.0
 30
0.0
 70
   128
 71
    18
 72
    19
 73
    12
  0
VERTEX
  5
166
  8
0
 10
0.0
 20
0.0
 30
0.0
 70
   128
 71
    19
 72
    20
 73
    11
  0
VERTEX
  5
167
  8
0
 10
0.0
 20
0.0
 30
0.0
 70
   128
 71
    20
 72
    21
 73
    10
  0
VERTEX
  5
168
  8
0
 10
0.0
 20
0.0
 30
0.0
 70
   128
 71
    21
 72
    22
 73
     9
  0
VERTEX
  5
169
  8
0
 10
0.0
 20
0.0
 30
0.0
 70
   128
 71
    22
 72
    23
 73
     8
  0
VERTEX
  5
16A
  8
0
 10
0.0
 20
0.0
 30
0.0
 70
   128
 71
    23
 72
    24
 73
     7
  0
VERTEX
  5
16B
  8
0
 10
0.0
 20
0.0
 30
0.0
 70
   128
 71
    24
 72
    25
 73
     6
  0
VERTEX
  5
16C
  8
0
 10
0.0
 20
0.0
 30
0.0
 70
   128
 71
    25
 72
    26
 73
     5
  0
VERTEX
  5
16D
  8
0
 10
0.0
 20
0.0
 30
0.0
 70
   128
 71
    26
 72
    27
 73
     4
  0
VERTEX
  5
16E
  8
0
 10
0.0
 20
0.0
 30
0.0
 70
   128
 71
    27
 72
    28
 73
     3
  0
SEQEND
  5
16F
  8
LAYER1
 62
     7
  0
POLYLINE
  5
170
  8
LAYER1
 62
     7
 66
     1
 10
0.0
 20
0.0
 30
0.0
 70
    64
 71
   116
 72
   118
  0
VERTEX
  5
171
  8
0
 10
-601.0
 20
-10.0
 30
2.0
 70
   192
  0
VERTEX
  5
172
  8
0
 10
601.0
 20
-10.0
 30
2.0
 70
   192
  0
VERTEX
  5
173
  8
0
 10
601.0
 20
-10.0
 30
442.0
 70
   192
  0
VERTEX
  5
174
  8
0
 10
-601.0
 20
-10.0
 30
442.0
 70
   192
  0
VERTEX
  5
175
  8
0
 10
-370.0
 20
-10.0
 30
144.5
 70
   192
  0
VERTEX
  5
176
  8
0
 10
-370.0
 20
-10.0
 30
299.5
 70
   192
  0
VERTEX
  5
177
  8
0
 10
-369.7448120117188
 20
-10.0
 30
303.7187805175781
 70
   192
  0
VERTEX
  5
178
  8
0
 10
-368.9829406738281
 20
-10.0
 30
307.8760375976562
 70
   192
  0
VERTEX
  5
179
  8
0
 10
-367.7255554199219
 20
-10.0
 30
311.9111633300781
 70
   192
  0
VERTEX
  5
17A
  8
0
 10
-365.990966796875
 20
-10.0
 30
315.7653198242188
 70
   192
  0
VERTEX
  5
17B
  8
0
 10
-363.804443359375
 20
-10.0
 30
319.3822631835938
 70
   192
  0
VERTEX
  5
17C
  8
0
 10
-361.1978759765625
 20
-10.0
 30
322.7092895507812
 70
   192
  0
VERTEX
  5
17D
  8
0
 10
-358.2092895507812
 20
-10.0
 30
325.6978759765625
 70
   192
  0
VERTEX
  5
17E
  8
0
 10
-354.8822631835938
 20
-10.0
 30
328.3044128417969
 70
   192
  0
VERTEX
  5
17F
  8
0
 10
-351.2653198242188
 20
-10.0
 30
330.490966796875
 70
   192
  0
VERTEX
  5
180
  8
0
 10
-347.4111938476562
 20
-10.0
 30
332.2255859375
 70
   192
  0
VERTEX
  5
181
  8
0
 10
-343.3760375976562
 20
-10.0
 30
333.4829711914062
 70
   192
  0
VERTEX
  5
182
  8
0
 10
-339.2187805175781
 20
-10.0
 30
334.2448120117188
 70
   192
  0
VERTEX
  5
183
  8
0
 10
-335.0
 20
-10.0
 30
334.5
 70
   192
  0
VERTEX
  5
184
  8
0
 10
-265.0
 20
-10.0
 30
334.5
 70
   192
  0
VERTEX
  5
185
  8
0
 10
-260.7812194824219
 20
-10.0
 30
334.2448120117188
 70
   192
  0
VERTEX
  5
186
  8
0
 10
-256.6239318847656
 20
-10.0
 30
333.4829711914062
 70
   192
  0
VERTEX
  5
187
  8
0
 10
-252.5888214111328
 20
-10.0
 30
332.2255859375
 70
   192
  0
VERTEX
  5
188
  8
0
 10
-248.7346954345703
 20
-10.0
 30
330.490966796875
 70
   192
  0
VERTEX
  5
189
  8
0
 10
-245.1177368164062
 20
-10.0
 30
328.3044128417969
 70
   192
  0
VERTEX
  5
18A
  8
0
 10
-241.7907104492188
 20
-10.0
 30
325.6978759765625
 70
   192
  0
VERTEX
  5
18B
  8
0
 10
-238.8021087646484
 20
-10.0
 30
322.7092895507812
 70
   192
  0
VERTEX
  5
18C
  8
0
 10
-236.195556640625
 20
-10.0
 30
319.3822631835938
 70
   192
  0
VERTEX
  5
18D
  8
0
 10
-234.0090484619141
 20
-10.0
 30
315.7653198242188
 70
   192
  0
VERTEX
  5
18E
  8
0
 10
-232.2744293212891
 20
-10.0
 30
311.9111633300781
 70
   192
  0
VERTEX
  5
18F
  8
0
 10
-231.0170288085938
 20
-10.0
 30
307.8760375976562
 70
   192
  0
VERTEX
  5
190
  8
0
 10
-230.2551727294922
 20
-10.0
 30
303.7187805175781
 70
   192
  0
VERTEX
  5
191
  8
0
 10
-230.0000152587891
 20
-10.0
 30
299.5
 70
   192
  0
VERTEX
  5
192
  8
0
 10
-230.0000152587891
 20
-10.0
 30
144.5
 70
   192
  0
VERTEX
  5
193
  8
0
 10
-230.2551727294922
 20
-10.0
 30
140.2812194824219
 70
   192
  0
VERTEX
  5
194
  8
0
 10
-231.0170288085938
 20
-10.0
 30
136.1239471435547
 70
   192
  0
VERTEX
  5
195
  8
0
 10
-232.2744293212891
 20
-10.0
 30
132.0888214111328
 70
   192
  0
VERTEX
  5
196
  8
0
 10
-234.0090484619141
 20
-10.0
 30
128.2346801757812
 70
   192
  0
VERTEX
  5
197
  8
0
 10
-236.195556640625
 20
-10.0
 30
124.6177291870117
 70
   192
  0
VERTEX
  5
198
  8
0
 10
-238.8021087646484
 20
-10.0
 30
121.2907104492188
 70
   192
  0
VERTEX
  5
199
  8
0
 10
-241.7907104492188
 20
-10.0
 30
118.302131652832
 70
   192
  0
VERTEX
  5
19A
  8
0
 10
-245.1177368164062
 20
-10.0
 30
115.6955642700195
 70
   192
  0
VERTEX
  5
19B
  8
0
 10
-248.7346954345703
 20
-10.0
 30
113.509033203125
 70
   192
  0
VERTEX
  5
19C
  8
0
 10
-252.5888214111328
 20
-10.0
 30
111.7744293212891
 70
   192
  0
VERTEX
  5
19D
  8
0
 10
-256.6239318847656
 20
-10.0
 30
110.5170288085938
 70
   192
  0
VERTEX
  5
19E
  8
0
 10
-260.7812194824219
 20
-10.0
 30
109.7551956176758
 70
   192
  0
VERTEX
  5
19F
  8
0
 10
-265.0
 20
-10.0
 30
109.5
 70
   192
  0
VERTEX
  5
1A0
  8
0
 10
-335.0
 20
-10.0
 30
109.5
 70
   192
  0
VERTEX
  5
1A1
  8
0
 10
-339.2187805175781
 20
-10.0
 30
109.7551956176758
 70
   192
  0
VERTEX
  5
1A2
  8
0
 10
-343.3760375976562
 20
-10.0
 30
110.5170288085938
 70
   192
  0
VERTEX
  5
1A3
  8
0
 10
-347.4111938476562
 20
-10.0
 30
111.7744293212891
 70
   192
  0
VERTEX
  5
1A4
  8
0
 10
-351.2653198242188
 20
-10.0
 30
113.509033203125
 70
   192
  0
VERTEX
  5
1A5
  8
0
 10
-354.8822631835938
 20
-10.0
 30
115.6955642700195
 70
   192
  0
VERTEX
  5
1A6
  8
0
 10
-358.2092895507812
 20
-10.0
 30
118.302131652832
 70
   192
  0
VERTEX
  5
1A7
  8
0
 10
-361.1978759765625
 20
-10.0
 30
121.2907104492188
 70
   192
  0
VERTEX
  5
1A8
  8
0
 10
-363.804443359375
 20
-10.0
 30
124.6177291870117
 70
   192
  0
VERTEX
  5
1A9
  8
0
 10
-365.990966796875
 20
-10.0
 30
128.2346801757812
 70
   192
  0
VERTEX
  5
1AA
  8
0
 10
-367.7255554199219
 20
-10.0
 30
132.0888214111328
 70
   192
  0
VERTEX
  5
1AB
  8
0
 10
-368.9829406738281
 20
-10.0
 30
136.1239471435547
 70
   192
  0
VERTEX
  5
1AC
  8
0
 10
-369.7448120117188
 20
-10.0
 30
140.2812194824219
 70
   192
  0
VERTEX
  5
1AD
  8
0
 10
265.0
 20
-10.0
 30
109.5
 70
   192
  0
VERTEX
  5
1AE
  8
0
 10
260.7812194824219
 20
-10.0
 30
109.7551956176758
 70
   192
  0
VERTEX
  5
1AF
  8
0
 10
256.6239318847656
 20
-10.0
 30
110.5170288085938
 70
   192
  0
VERTEX
  5
1B0
  8
0
 10
252.5888214111328
 20
-10.0
 30
111.7744293212891
 70
   192
  0
VERTEX
  5
1B1
  8
0
 10
248.7346954345703
 20
-10.0
 30
113.509033203125
 70
   192
  0
VERTEX
  5
1B2
  8
0
 10
245.1177368164062
 20
-10.0
 30
115.6955642700195
 70
   192
  0
VERTEX
  5
1B3
  8
0
 10
241.7907104492188
 20
-10.0
 30
118.302131652832
 70
   192
  0
VERTEX
  5
1B4
  8
0
 10
238.8021087646484
 20
-10.0
 30
121.2907104492188
 70
   192
  0
VERTEX
  5
1B5
  8
0
 10
236.195556640625
 20
-10.0
 30
124.6177291870117
 70
   192
  0
VERTEX
  5
1B6
  8
0
 10
234.0090484619141
 20
-10.0
 30
128.2346801757812
 70
   192
  0
VERTEX
  5
1B7
  8
0
 10
232.2744293212891
 20
-10.0
 30
132.0888214111328
 70
   192
  0
VERTEX
  5
1B8
  8
0
 10
231.0170288085938
 20
-10.0
 30
136.1239471435547
 70
   192
  0
VERTEX
  5
1B9
  8
0
 10
230.2551727294922
 20
-10.0
 30
140.2812194824219
 70
   192
  0
VERTEX
  5
1BA
  8
0
 10
230.0000152587891
 20
-10.0
 30
144.5
 70
   192
  0
VERTEX
  5
1BB
  8
0
 10
230.0000152587891
 20
-10.0
 30
299.5
 70
   192
  0
VERTEX
  5
1BC
  8
0
 10
230.2551727294922
 20
-10.0
 30
303.7187805175781
 70
   192
  0
VERTEX
  5
1BD
  8
0
 10
231.0170288085938
 20
-10.0
 30
307.8760375976562
 70
   192
  0
VERTEX
  5
1BE
  8
0
 10
232.2744293212891
 20
-10.0
 30
311.9111633300781
 70
   192
  0
VERTEX
  5
1BF
  8
0
 10
234.0090484619141
 20
-10.0
 30
315.7653198242188
 70
   192
  0
VERTEX
  5
1C0
  8
0
 10
236.195556640625
 20
-10.0
 30
319.3822631835938
 70
   192
  0
VERTEX
  5
1C1
  8
0
 10
238.8021087646484
 20
-10.0
 30
322.7092895507812
 70
   192
  0
VERTEX
  5
1C2
  8
0
 10
241.7907104492188
 20
-10.0
 30
325.6978759765625
 70
   192
  0
VERTEX
  5
1C3
  8
0
 10
245.1177368164062
 20
-10.0
 30
328.3044128417969
 70
   192
  0
VERTEX
  5
1C4
  8
0
 10
248.7346954345703
 20
-10.0
 30
330.490966796875
 70
   192
  0
VERTEX
  5
1C5
  8
0
 10
252.5888214111328
 20
-10.0
 30
332.2255859375
 70
   192
  0
VERTEX
  5
1C6
  8
0
 10
256.6239318847656
 20
-10.0
 30
333.4829711914062
 70
   192
  0
VERTEX
  5
1C7
  8
0
 10
260.7812194824219
 20
-10.0
 30
334.2448120117188
 70
   192
  0
VERTEX
  5
1C8
  8
0
 10
265.0
 20
-10.0
 30
334.5
 70
   192
  0
VERTEX
  5
1C9
  8
0
 10
335.0
 20
-10.0
 30
334.5
 70
   192
  0
VERTEX
  5
1CA
  8
0
 10
339.2187805175781
 20
-10.0
 30
334.2448120117188
 70
   192
  0
VERTEX
  5
1CB
  8
0
 10
343.3760375976562
 20
-10.0
 30
333.4829711914062
 70
   192
  0
VERTEX
  5
1CC
  8
0
 10
347.4111938476562
 20
-10.0
 30
332.2255859375
 70
   192
  0
VERTEX
  5
1CD
  8
0
 10
351.2653198242188
 20
-10.0
 30
330.490966796875
 70
   192
  0
VERTEX
  5
1CE
  8
0
 10
354.8822631835938
 20
-10.0
 30
328.3044128417969
 70
   192
  0
VERTEX
  5
1CF
  8
0
 10
358.2092895507812
 20
-10.0
 30
325.6978759765625
 70
   192
  0
VERTEX
  5
1D0
  8
0
 10
361.1978759765625
 20
-10.0
 30
322.7092895507812
 70
   192
  0
VERTEX
  5
1D1
  8
0
 10
363.804443359375
 20
-10.0
 30
319.3822631835938
 70
   192
  0
VERTEX
  5
1D2
  8
0
 10
365.990966796875
 20
-10.0
 30
315.7653198242188
 70
   192
  0
VERTEX
  5
1D3
  8
0
 10
367.7255554199219
 20
-10.0
 30
311.9111633300781
 70
   192
  0
VERTEX
  5
1D4
  8
0
 10
368.9829406738281
 20
-10.0
 30
307.8760375976562
 70
   192
  0
VERTEX
  5
1D5
  8
0
 10
369.7448120117188
 20
-10.0
 30
303.7187805175781
 70
   192
  0
VERTEX
  5
1D6
  8
0
 10
370.0
 20
-10.0
 30
299.5
 70
   192
  0
VERTEX
  5
1D7
  8
0
 10
370.0
 20
-10.0
 30
144.5
 70
   192
  0
VERTEX
  5
1D8
  8
0
 10
369.7448120117188
 20
-10.0
 30
140.2812194824219
 70
   192
  0
VERTEX
  5
1D9
  8
0
 10
368.9829406738281
 20
-10.0
 30
136.1239471435547
 70
   192
  0
VERTEX
  5
1DA
  8
0
 10
367.7255554199219
 20
-10.0
 30
132.0888214111328
 70
   192
  0
VERTEX
  5
1DB
  8
0
 10
365.990966796875
 20
-10.0
 30
128.2346801757812
 70
   192
  0
VERTEX
  5
1DC
  8
0
 10
363.804443359375
 20
-10.0
 30
124.6177291870117
 70
   192
  0
VERTEX
  5
1DD
  8
0
 10
361.1978759765625
 20
-10.0
 30
121.2907104492188
 70
   192
  0
VERTEX
  5
1DE
  8
0
 10
358.2092895507812
 20
-10.0
 30
118.302131652832
 70
   192
  0
VERTEX
  5
1DF
  8
0
 10
354.8822631835938
 20
-10.0
 30
115.6955642700195
 70
   192
  0
VERTEX
  5
1E0
  8
0
 10
351.2653198242188
 20
-10.0
 30
113.509033203125
 70
   192
  0
VERTEX
  5
1E1
  8
0
 10
347.4111938476562
 20
-10.0
 30
111.7744293212891
 70
   192
  0
VERTEX
  5
1E2
  8
0
 10
343.3760375976562
 20
-10.0
 30
110.5170288085938
 70
   192
  0
VERTEX
  5
1E3
  8
0
 10
339.2187805175781
 20
-10.0
 30
109.7551956176758
 70
   192
  0
VERTEX
  5
1E4
  8
0
 10
335.0
 20
-10.0
 30
109.5
 70
   192
  0
VERTEX
  5
1E5
  8
0
 10
0.0
 20
0.0
 30
0.0
 70
   128
 71
    61
 72
    62
 73
     2
  0
VERTEX
  5
1E6
  8
0
 10
0.0
 20
0.0
 30
0.0
 70
   128
 71
   116
 72
     2
 73
   115
  0
VERTEX
  5
1E7
  8
0
 10
0.0
 20
0.0
 30
0.0
 70
   128
 71
   116
 72
    61
 73
     2
  0
VERTEX
  5
1E8
  8
0
 10
0.0
 20
0.0
 30
0.0
 70
   128
 71
   101
 72
   102
 73
     3
  0
VERTEX
  5
1E9
  8
0
 10
0.0
 20
0.0
 30
0.0
 70
   128
 71
   100
 72
     3
 73
    99
  0
VERTEX
  5
1EA
  8
0
 10
0.0
 20
0.0
 30
0.0
 70
   128
 71
   100
 72
   101
 73
     3
  0
VERTEX
  5
1EB
  8
0
 10
0.0
 20
0.0
 30
0.0
 70
   128
 71
    20
 72
    21
 73
     4
  0
VERTEX
  5
1EC
  8
0
 10
0.0
 20
0.0
 30
0.0
 70
   128
 71
    19
 72
     4
 73
    18
  0
VERTEX
  5
1ED
  8
0
 10
0.0
 20
0.0
 30
0.0
 70
   128
 71
    19
 72
    20
 73
     4
  0
VERTEX
  5
1EE
  8
0
 10
0.0
 20
0.0
 30
0.0
 70
   128
 71
    59
 72
    60
 73
     1
  0
VERTEX
  5
1EF
  8
0
 10
0.0
 20
0.0
 30
0.0
 70
   128
 71
    58
 72
     1
 73
    57
  0
VERTEX
  5
1F0
  8
0
 10
0.0
 20
0.0
 30
0.0
 70
   128
 71
    58
 72
    59
 73
     1
  0
VERTEX
  5
1F1
  8
0
 10
0.0
 20
0.0
 30
0.0
 70
   128
 71
     6
 72
     4
 73
     5
  0
VERTEX
  5
1F2
  8
0
 10
0.0
 20
0.0
 30
0.0
 70
   128
 71
     6
 72
     7
 73
     4
  0
VERTEX
  5
1F3
  8
0
 10
0.0
 20
0.0
 30
0.0
 70
   128
 71
     4
 72
     7
 73
     8
  0
VERTEX
  5
1F4
  8
0
 10
0.0
 20
0.0
 30
0.0
 70
   128
 71
     9
 72
     4
 73
     8
  0
VERTEX
  5
1F5
  8
0
 10
0.0
 20
0.0
 30
0.0
 70
   128
 71
     9
 72
    10
 73
     4
  0
VERTEX
  5
1F6
  8
0
 10
0.0
 20
0.0
 30
0.0
 70
   128
 71
     4
 72
    10
 73
    11
  0
VERTEX
  5
1F7
  8
0
 10
0.0
 20
0.0
 30
0.0
 70
   128
 71
    12
 72
     4
 73
    11
  0
VERTEX
  5
1F8
  8
0
 10
0.0
 20
0.0
 30
0.0
 70
   128
 71
    12
 72
    13
 73
     4
  0
VERTEX
  5
1F9
  8
0
 10
0.0
 20
0.0
 30
0.0
 70
   128
 71
     4
 72
    13
 73
    14
  0
VERTEX
  5
1FA
  8
0
 10
0.0
 20
0.0
 30
0.0
 70
   128
 71
    15
 72
     4
 73
    14
  0
VERTEX
  5
1FB
  8
0
 10
0.0
 20
0.0
 30
0.0
 70
   128
 71
    15
 72
    16
 73
     4
  0
VERTEX
  5
1FC
  8
0
 10
0.0
 20
0.0
 30
0.0
 70
   128
 71
     4
 72
    16
 73
    17
  0
VERTEX
  5
1FD
  8
0
 10
0.0
 20
0.0
 30
0.0
 70
   128
 71
    18
 72
     4
 73
    17
  0
VERTEX
  5
1FE
  8
0
 10
0.0
 20
0.0
 30
0.0
 70
   128
 71
     1
 72
     2
 73
    46
  0
VERTEX
  5
1FF
  8
0
 10
0.0
 20
0.0
 30
0.0
 70
   128
 71
    47
 72
     1
 73
    46
  0
VERTEX
  5
200
  8
0
 10
0.0
 20
0.0
 30
0.0
 70
   128
 71
    47
 72
    48
 73
     1
  0
VERTEX
  5
201
  8
0
 10
0.0
 20
0.0
 30
0.0
 70
   128
 71
     1
 72
    48
 73
    49
  0
VERTEX
  5
202
  8
0
 10
0.0
 20
0.0
 30
0.0
 70
   128
 71
    50
 72
     1
 73
    49
  0
VERTEX
  5
203
  8
0
 10
0.0
 20
0.0
 30
0.0
 70
   128
 71
    50
 72
    51
 73
     1
  0
VERTEX
  5
204
  8
0
 10
0.0
 20
0.0
 30
0.0
 70
   128
 71
     1
 72
    51
 73
    52
  0
VERTEX
  5
205
  8
0
 10
0.0
 20
0.0
 30
0.0
 70
   128
 71
    53
 72
     1
 73
    52
  0
VERTEX
  5
206
  8
0
 10
0.0
 20
0.0
 30
0.0
 70
   128
 71
    53
 72
    54
 73
     1
  0
VERTEX
  5
207
  8
0
 10
0.0
 20
0.0
 30
0.0
 70
   128
 71
     1
 72
    54
 73
    55
  0
VERTEX
  5
208
  8
0
 10
0.0
 20
0.0
 30
0.0
 70
   128
 71
    56
 72
     1
 73
    55
  0
VERTEX
  5
209
  8
0
 10
0.0
 20
0.0
 30
0.0
 70
   128
 71
    56
 72
    57
 73
     1
  0
VERTEX
  5
20A
  8
0
 10
0.0
 20
0.0
 30
0.0
 70
   128
 71
    46
 72
    62
 73
    45
  0
VERTEX
  5
20B
  8
0
 10
0.0
 20
0.0
 30
0.0
 70
   128
 71
    46
 72
     2
 73
    62
  0
VERTEX
  5
20C
  8
0
 10
0.0
 20
0.0
 30
0.0
 70
   128
 71
    45
 72
    63
 73
    44
  0
VERTEX
  5
20D
  8
0
 10
0.0
 20
0.0
 30
0.0
 70
   128
 71
    45
 72
    62
 73
    63
  0
VERTEX
  5
20E
  8
0
 10
0.0
 20
0.0
 30
0.0
 70
   128
 71
    44
 72
    64
 73
    43
  0
VERTEX
  5
20F
  8
0
 10
0.0
 20
0.0
 30
0.0
 70
   128
 71
    44
 72
    63
 73
    64
  0
VERTEX
  5
210
  8
0
 10
0.0
 20
0.0
 30
0.0
 70
   128
 71
    43
 72
    65
 73
    42
  0
VERTEX
  5
211
  8
0
 10
0.0
 20
0.0
 30
0.0
 70
   128
 71
    43
 72
    64
 73
    65
  0
VERTEX
  5
212
  8
0
 10
0.0
 20
0.0
 30
0.0
 70
   128
 71
    42
 72
    66
 73
    41
  0
VERTEX
  5
213
  8
0
 10
0.0
 20
0.0
 30
0.0
 70
   128
 71
    42
 72
    65
 73
    66
  0
VERTEX
  5
214
  8
0
 10
0.0
 20
0.0
 30
0.0
 70
   128
 71
    41
 72
    67
 73
    40
  0
VERTEX
  5
215
  8
0
 10
0.0
 20
0.0
 30
0.0
 70
   128
 71
    41
 72
    66
 73
    67
  0
VERTEX
  5
216
  8
0
 10
0.0
 20
0.0
 30
0.0
 70
   128
 71
    40
 72
    68
 73
    39
  0
VERTEX
  5
217
  8
0
 10
0.0
 20
0.0
 30
0.0
 70
   128
 71
    40
 72
    67
 73
    68
  0
VERTEX
  5
218
  8
0
 10
0.0
 20
0.0
 30
0.0
 70
   128
 71
    39
 72
    69
 73
    38
  0
VERTEX
  5
219
  8
0
 10
0.0
 20
0.0
 30
0.0
 70
   128
 71
    39
 72
    68
 73
    69
  0
VERTEX
  5
21A
  8
0
 10
0.0
 20
0.0
 30
0.0
 70
   128
 71
    38
 72
    70
 73
    37
  0
VERTEX
  5
21B
  8
0
 10
0.0
 20
0.0
 30
0.0
 70
   128
 71
    38
 72
    69
 73
    70
  0
VERTEX
  5
21C
  8
0
 10
0.0
 20
0.0
 30
0.0
 70
   128
 71
    37
 72
    71
 73
    36
  0
VERTEX
  5
21D
  8
0
 10
0.0
 20
0.0
 30
0.0
 70
   128
 71
    37
 72
    70
 73
    71
  0
VERTEX
  5
21E
  8
0
 10
0.0
 20
0.0
 30
0.0
 70
   128
 71
    36
 72
    72
 73
    35
  0
VERTEX
  5
21F
  8
0
 10
0.0
 20
0.0
 30
0.0
 70
   128
 71
    36
 72
    71
 73
    72
  0
VERTEX
  5
220
  8
0
 10
0.0
 20
0.0
 30
0.0
 70
   128
 71
    35
 72
    73
 73
    34
  0
VERTEX
  5
221
  8
0
 10
0.0
 20
0.0
 30
0.0
 70
   128
 71
    35
 72
    72
 73
    73
  0
VERTEX
  5
222
  8
0
 10
0.0
 20
0.0
 30
0.0
 70
   128
 71
    60
 72
     5
 73
     1
  0
VERTEX
  5
223
  8
0
 10
0.0
 20
0.0
 30
0.0
 70
   128
 71
     1
 72
     5
 73
     4
  0
VERTEX
  5
224
  8
0
 10
0.0
 20
0.0
 30
0.0
 70
   128
 71
    73
 72
    74
 73
    34
  0
VERTEX
  5
225
  8
0
 10
0.0
 20
0.0
 30
0.0
 70
   128
 71
    34
 72
    74
 73
    33
  0
VERTEX
  5
226
  8
0
 10
0.0
 20
0.0
 30
0.0
 70
   128
 71
    33
 72
    74
 73
    75
  0
VERTEX
  5
227
  8
0
 10
0.0
 20
0.0
 30
0.0
 70
   128
 71
    32
 72
    75
 73
    76
  0
VERTEX
  5
228
  8
0
 10
0.0
 20
0.0
 30
0.0
 70
   128
 71
    31
 72
    76
 73
    77
  0
VERTEX
  5
229
  8
0
 10
0.0
 20
0.0
 30
0.0
 70
   128
 71
    30
 72
    77
 73
    78
  0
VERTEX
  5
22A
  8
0
 10
0.0
 20
0.0
 30
0.0
 70
   128
 71
    29
 72
    78
 73
    79
  0
VERTEX
  5
22B
  8
0
 10
0.0
 20
0.0
 30
0.0
 70
   128
 71
    28
 72
    79
 73
    80
  0
VERTEX
  5
22C
  8
0
 10
0.0
 20
0.0
 30
0.0
 70
   128
 71
    27
 72
    80
 73
    81
  0
VERTEX
  5
22D
  8
0
 10
0.0
 20
0.0
 30
0.0
 70
   128
 71
    26
 72
    81
 73
    82
  0
VERTEX
  5
22E
  8
0
 10
0.0
 20
0.0
 30
0.0
 70
   128
 71
    25
 72
    82
 73
    83
  0
VERTEX
  5
22F
  8
0
 10
0.0
 20
0.0
 30
0.0
 70
   128
 71
    24
 72
    83
 73
    84
  0
VERTEX
  5
230
  8
0
 10
0.0
 20
0.0
 30
0.0
 70
   128
 71
    23
 72
    84
 73
    85
  0
VERTEX
  5
231
  8
0
 10
0.0
 20
0.0
 30
0.0
 70
   128
 71
    22
 72
    85
 73
    86
  0
VERTEX
  5
232
  8
0
 10
0.0
 20
0.0
 30
0.0
 70
   128
 71
    21
 72
    86
 73
    87
  0
VERTEX
  5
233
  8
0
 10
0.0
 20
0.0
 30
0.0
 70
   128
 71
     4
 72
    87
 73
     3
  0
VERTEX
  5
234
  8
0
 10
0.0
 20
0.0
 30
0.0
 70
   128
 71
     4
 72
    21
 73
    87
  0
VERTEX
  5
235
  8
0
 10
0.0
 20
0.0
 30
0.0
 70
   128
 71
    87
 72
    88
 73
     3
  0
VERTEX
  5
236
  8
0
 10
0.0
 20
0.0
 30
0.0
 70
   128
 71
     3
 72
    88
 73
    89
  0
VERTEX
  5
237
  8
0
 10
0.0
 20
0.0
 30
0.0
 70
   128
 71
    90
 72
     3
 73
    89
  0
VERTEX
  5
238
  8
0
 10
0.0
 20
0.0
 30
0.0
 70
   128
 71
    90
 72
    91
 73
     3
  0
VERTEX
  5
239
  8
0
 10
0.0
 20
0.0
 30
0.0
 70
   128
 71
     3
 72
    91
 73
    92
  0
VERTEX
  5
23A
  8
0
 10
0.0
 20
0.0
 30
0.0
 70
   128
 71
    93
 72
     3
 73
    92
  0
VERTEX
  5
23B
  8
0
 10
0.0
 20
0.0
 30
0.0
 70
   128
 71
    93
 72
    94
 73
     3
  0
VERTEX
  5
23C
  8
0
 10
0.0
 20
0.0
 30
0.0
 70
   128
 71
     3
 72
    94
 73
    95
  0
VERTEX
  5
23D
  8
0
 10
0.0
 20
0.0
 30
0.0
 70
   128
 71
    96
 72
     3
 73
    95
  0
VERTEX
  5
23E
  8
0
 10
0.0
 20
0.0
 30
0.0
 70
   128
 71
    96
 72
    97
 73
     3
  0
VERTEX
  5
23F
  8
0
 10
0.0
 20
0.0
 30
0.0
 70
   128
 71
     3
 72
    97
 73
    98
  0
VERTEX
  5
240
  8
0
 10
0.0
 20
0.0
 30
0.0
 70
   128
 71
    99
 72
     3
 73
    98
  0
VERTEX
  5
241
  8
0
 10
0.0
 20
0.0
 30
0.0
 70
   128
 71
   102
 72
   103
 73
     3
  0
VERTEX
  5
242
  8
0
 10
0.0
 20
0.0
 30
0.0
 70
   128
 71
     3
 72
   103
 73
     2
  0
VERTEX
  5
243
  8
0
 10
0.0
 20
0.0
 30
0.0
 70
   128
 71
     2
 72
   103
 73
   104
  0
VERTEX
  5
244
  8
0
 10
0.0
 20
0.0
 30
0.0
 70
   128
 71
   105
 72
     2
 73
   104
  0
VERTEX
  5
245
  8
0
 10
0.0
 20
0.0
 30
0.0
 70
   128
 71
   105
 72
   106
 73
     2
  0
VERTEX
  5
246
  8
0
 10
0.0
 20
0.0
 30
0.0
 70
   128
 71
     2
 72
   106
 73
   107
  0
VERTEX
  5
247
  8
0
 10
0.0
 20
0.0
 30
0.0
 70
   128
 71
   108
 72
     2
 73
   107
  0
VERTEX
  5
248
  8
0
 10
0.0
 20
0.0
 30
0.0
 70
   128
 71
   108
 72
   109
 73
     2
  0
VERTEX
  5
249
  8
0
 10
0.0
 20
0.0
 30
0.0
 70
   128
 71
     2
 72
   109
 73
   110
  0
VERTEX
  5
24A
  8
0
 10
0.0
 20
0.0
 30
0.0
 70
   128
 71
   111
 72
     2
 73
   110
  0
VERTEX
  5
24B
  8
0
 10
0.0
 20
0.0
 30
0.0
 70
   128
 71
   111
 72
   112
 73
     2
  0
VERTEX
  5
24C
  8
0
 10
0.0
 20
0.0
 30
0.0
 70
   128
 71
     2
 72
   112
 73
   113
  0
VERTEX
  5
24D
  8
0
 10
0.0
 20
0.0
 30
0.0
 70
   128
 71
   114
 72
     2
 73
   113
  0
VERTEX
  5
24E
  8
0
 10
0.0
 20
0.0
 30
0.0
 70
   128
 71
   114
 72
   115
 73
     2
  0
VERTEX
  5
24F
  8
0
 10
0.0
 20
0.0
 30
0.0
 70
   128
 71
    86
 72
    21
 73
    22
  0
VERTEX
  5
250
  8
0
 10
0.0
 20
0.0
 30
0.0
 70
   128
 71
    85
 72
    22
 73
    23
  0
VERTEX
  5
251
  8
0
 10
0.0
 20
0.0
 30
0.0
 70
   128
 71
    84
 72
    23
 73
    24
  0
VERTEX
  5
252
  8
0
 10
0.0
 20
0.0
 30
0.0
 70
   128
 71
    83
 72
    24
 73
    25
  0
VERTEX
  5
253
  8
0
 10
0.0
 20
0.0
 30
0.0
 70
   128
 71
    82
 72
    25
 73
    26
  0
VERTEX
  5
254
  8
0
 10
0.0
 20
0.0
 30
0.0
 70
   128
 71
    81
 72
    26
 73
    27
  0
VERTEX
  5
255
  8
0
 10
0.0
 20
0.0
 30
0.0
 70
   128
 71
    80
 72
    27
 73
    28
  0
VERTEX
  5
256
  8
0
 10
0.0
 20
0.0
 30
0.0
 70
   128
 71
    79
 72
    28
 73
    29
  0
VERTEX
  5
257
  8
0
 10
0.0
 20
0.0
 30
0.0
 70
   128
 71
    78
 72
    29
 73
    30
  0
VERTEX
  5
258
  8
0
 10
0.0
 20
0.0
 30
0.0
 70
   128
 71
    77
 72
    30
 73
    31
  0
VERTEX
  5
259
  8
0
 10
0.0
 20
0.0
 30
0.0
 70
   128
 71
    76
 72
    31
 73
    32
  0
VERTEX
  5
25A
  8
0
 10
0.0
 20
0.0
 30
0.0
 70
   128
 71
    75
 72
    32
 73
    33
  0
SEQEND
  5
25B
  8
LAYER1
 62
     7
  0
POLYLINE
  5
25C
  8
LAYER1
 62
     7
 66
     1
 10
0.0
 20
0.0
 30
0.0
 70
    64
 71
     4
 72
     2
  0
VERTEX
  5
25D
  8
0
 10
-265.0
 20
-10.0
 30
109.5
 70
   192
  0
VERTEX
  5
25E
  8
0
 10
-265.0
 20
0.0
 30
109.5
 70
   192
  0
VERTEX
  5
25F
  8
0
 10
-335.0
 20
0.0
 30
109.5
 70
   192
  0
VERTEX
  5
260
  8
0
 10
-335.0
 20
-10.0
 30
109.5
 70
   192
  0
VERTEX
  5
261
  8
0
 10
0.0
 20
0.0
 30
0.0
 70
   128
 71
     1
 72
     2
 73
     4
  0
VERTEX
  5
262
  8
0
 10
0.0
 20
0.0
 30
0.0
 70
   128
 71
     4
 72
     2
 73
     3
  0
SEQEND
  5
263
  8
LAYER1
 62
     7
  0
POLYLINE
  5
264
  8
LAYER1
 62
     7
 66
     1
 10
0.0
 20
0.0
 30
0.0
 70
    64
 71
    28
 72
    26
  0
VERTEX
  5
265
  8
0
 10
-230.0000152587891
 20
-10.0
 30
144.5
 70
   192
  0
VERTEX
  5
266
  8
0
 10
-230.0000152587891
 20
0.0
 30
144.5
 70
   192
  0
VERTEX
  5
267
  8
0
 10
-230.2551727294922
 20
0.0
 30
140.2812194824219
 70
   192
  0
VERTEX
  5
268
  8
0
 10
-231.0170288085938
 20
0.0
 30
136.1239471435547
 70
   192
  0
VERTEX
  5
269
  8
0
 10
-232.2744293212891
 20
0.0
 30
132.0888214111328
 70
   192
  0
VERTEX
  5
26A
  8
0
 10
-234.0090484619141
 20
0.0
 30
128.2346801757812
 70
   192
  0
VERTEX
  5
26B
  8
0
 10
-236.195556640625
 20
0.0
 30
124.6177291870117
 70
   192
  0
VERTEX
  5
26C
  8
0
 10
-238.8021087646484
 20
0.0
 30
121.2907104492188
 70
   192
  0
VERTEX
  5
26D
  8
0
 10
-241.7907104492188
 20
0.0
 30
118.302131652832
 70
   192
  0
VERTEX
  5
26E
  8
0
 10
-245.1177368164062
 20
0.0
 30
115.6955642700195
 70
   192
  0
VERTEX
  5
26F
  8
0
 10
-248.7346954345703
 20
0.0
 30
113.509033203125
 70
   192
  0
VERTEX
  5
270
  8
0
 10
-252.5888214111328
 20
0.0
 30
111.7744293212891
 70
   192
  0
VERTEX
  5
271
  8
0
 10
-256.6239318847656
 20
0.0
 30
110.5170288085938
 70
   192
  0
VERTEX
  5
272
  8
0
 10
-260.7812194824219
 20
0.0
 30
109.7551956176758
 70
   192
  0
VERTEX
  5
273
  8
0
 10
-265.0
 20
0.0
 30
109.5
 70
   192
  0
VERTEX
  5
274
  8
0
 10
-265.0
 20
-10.0
 30
109.5
 70
   192
  0
VERTEX
  5
275
  8
0
 10
-260.7812194824219
 20
-10.0
 30
109.7551956176758
 70
   192
  0
VERTEX
  5
276
  8
0
 10
-256.6239318847656
 20
-10.0
 30
110.5170288085938
 70
   192
  0
VERTEX
  5
277
  8
0
 10
-252.5888214111328
 20
-10.0
 30
111.7744293212891
 70
   192
  0
VERTEX
  5
278
  8
0
 10
-248.7346954345703
 20
-10.0
 30
113.509033203125
 70
   192
  0
VERTEX
  5
279
  8
0
 10
-245.1177368164062
 20
-10.0
 30
115.6955642700195
 70
   192
  0
VERTEX
  5
27A
  8
0
 10
-241.7907104492188
 20
-10.0
 30
118.302131652832
 70
   192
  0
VERTEX
  5
27B
  8
0
 10
-238.8021087646484
 20
-10.0
 30
121.2907104492188
 70
   192
  0
VERTEX
  5
27C
  8
0
 10
-236.195556640625
 20
-10.0
 30
124.6177291870117
 70
   192
  0
VERTEX
  5
27D
  8
0
 10
-234.0090484619141
 20
-10.0
 30
128.2346801757812
 70
   192
  0
VERTEX
  5
27E
  8
0
 10
-232.2744293212891
 20
-10.0
 30
132.0888214111328
 70
   192
  0
VERTEX
  5
27F
  8
0
 10
-231.0170288085938
 20
-10.0
 30
136.1239471435547
 70
   192
  0
VERTEX
  5
280
  8
0
 10
-230.2551727294922
 20
-10.0
 30
140.2812194824219
 70
   192
  0
VERTEX
  5
281
  8
0
 10
0.0
 20
0.0
 30
0.0
 70
   128
 71
     1
 72
     2
 73
    28
  0
VERTEX
  5
282
  8
0
 10
0.0
 20
0.0
 30
0.0
 70
   128
 71
    28
 72
     2
 73
     3
  0
VERTEX
  5
283
  8
0
 10
0.0
 20
0.0
 30
0.0
 70
   128
 71
    27
 72
     3
 73
     4
  0
VERTEX
  5
284
  8
0
 10
0.0
 20
0.0
 30
0.0
 70
   128
 71
    26
 72
     4
 73
     5
  0
VERTEX
  5
285
  8
0
 10
0.0
 20
0.0
 30
0.0
 70
   128
 71
    25
 72
     5
 73
     6
  0
VERTEX
  5
286
  8
0
 10
0.0
 20
0.0
 30
0.0
 70
   128
 71
    24
 72
     6
 73
     7
  0
VERTEX
  5
287
  8
0
 10
0.0
 20
0.0
 30
0.0
 70
   128
 71
    23
 72
     7
 73
     8
  0
VERTEX
  5
288
  8
0
 10
0.0
 20
0.0
 30
0.0
 70
   128
 71
    22
 72
     8
 73
     9
  0
VERTEX
  5
289
  8
0
 10
0.0
 20
0.0
 30
0.0
 70
   128
 71
    21
 72
     9
 73
    10
  0
VERTEX
  5
28A
  8
0
 10
0.0
 20
0.0
 30
0.0
 70
   128
 71
    20
 72
    10
 73
    11
  0
VERTEX
  5
28B
  8
0
 10
0.0
 20
0.0
 30
0.0
 70
   128
 71
    19
 72
    11
 73
    12
  0
VERTEX
  5
28C
  8
0
 10
0.0
 20
0.0
 30
0.0
 70
   128
 71
    18
 72
    12
 73
    13
  0
VERTEX
  5
28D
  8
0
 10
0.0
 20
0.0
 30
0.0
 70
   128
 71
    17
 72
    13
 73
    14
  0
VERTEX
  5
28E
  8
0
 10
0.0
 20
0.0
 30
0.0
 70
   128
 71
    16
 72
    14
 73
    15
  0
VERTEX
  5
28F
  8
0
 10
0.0
 20
0.0
 30
0.0
 70
   128
 71
    16
 72
    17
 73
    14
  0
VERTEX
  5
290
  8
0
 10
0.0
 20
0.0
 30
0.0
 70
   128
 71
    17
 72
    18
 73
    13
  0
VERTEX
  5
291
  8
0
 10
0.0
 20
0.0
 30
0.0
 70
   128
 71
    18
 72
    19
 73
    12
  0
VERTEX
  5
292
  8
0
 10
0.0
 20
0.0
 30
0.0
 70
   128
 71
    19
 72
    20
 73
    11
  0
VERTEX
  5
293
  8
0
 10
0.0
 20
0.0
 30
0.0
 70
   128
 71
    20
 72
    21
 73
    10
  0
VERTEX
  5
294
  8
0
 10
0.0
 20
0.0
 30
0.0
 70
   128
 71
    21
 72
    22
 73
     9
  0
VERTEX
  5
295
  8
0
 10
0.0
 20
0.0
 30
0.0
 70
   128
 71
    22
 72
    23
 73
     8
  0
VERTEX
  5
296
  8
0
 10
0.0
 20
0.0
 30
0.0
 70
   128
 71
    23
 72
    24
 73
     7
  0
VERTEX
  5
297
  8
0
 10
0.0
 20
0.0
 30
0.0
 70
   128
 71
    24
 72
    25
 73
     6
  0
VERTEX
  5
298
  8
0
 10
0.0
 20
0.0
 30
0.0
 70
   128
 71
    25
 72
    26
 73
     5
  0
VERTEX
  5
299
  8
0
 10
0.0
 20
0.0
 30
0.0
 70
   128
 71
    26
 72
    27
 73
     4
  0
VERTEX
  5
29A
  8
0
 10
0.0
 20
0.0
 30
0.0
 70
   128
 71
    27
 72
    28
 73
     3
  0
SEQEND
  5
29B
  8
LAYER1
 62
     7
  0
POLYLINE
  5
29C
  8
LAYER1
 62
     7
 66
     1
 10
0.0
 20
0.0
 30
0.0
 70
    64
 71
     4
 72
     2
  0
VERTEX
  5
29D
  8
0
 10
-230.0000152587891
 20
-10.0
 30
299.5
 70
   192
  0
VERTEX
  5
29E
  8
0
 10
-230.0000152587891
 20
0.0
 30
299.5
 70
   192
  0
VERTEX
  5
29F
  8
0
 10
-230.0000152587891
 20
0.0
 30
144.5
 70
   192
  0
VERTEX
  5
2A0
  8
0
 10
-230.0000152587891
 20
-10.0
 30
144.5
 70
   192
  0
VERTEX
  5
2A1
  8
0
 10
0.0
 20
0.0
 30
0.0
 70
   128
 71
     1
 72
     2
 73
     4
  0
VERTEX
  5
2A2
  8
0
 10
0.0
 20
0.0
 30
0.0
 70
   128
 71
     4
 72
     2
 73
     3
  0
SEQEND
  5
2A3
  8
LAYER1
 62
     7
  0
POLYLINE
  5
2A4
  8
LAYER1
 62
     7
 66
     1
 10
0.0
 20
0.0
 30
0.0
 70
    64
 71
    28
 72
    26
  0
VERTEX
  5
2A5
  8
0
 10
-265.0
 20
-10.0
 30
334.5
 70
   192
  0
VERTEX
  5
2A6
  8
0
 10
-265.0
 20
0.0
 30
334.5
 70
   192
  0
VERTEX
  5
2A7
  8
0
 10
-260.7812194824219
 20
0.0
 30
334.2448120117188
 70
   192
  0
VERTEX
  5
2A8
  8
0
 10
-256.6239318847656
 20
0.0
 30
333.4829711914062
 70
   192
  0
VERTEX
  5
2A9
  8
0
 10
-252.5888214111328
 20
0.0
 30
332.2255859375
 70
   192
  0
VERTEX
  5
2AA
  8
0
 10
-248.7346954345703
 20
0.0
 30
330.490966796875
 70
   192
  0
VERTEX
  5
2AB
  8
0
 10
-245.1177368164062
 20
0.0
 30
328.3044128417969
 70
   192
  0
VERTEX
  5
2AC
  8
0
 10
-241.7907104492188
 20
0.0
 30
325.6978759765625
 70
   192
  0
VERTEX
  5
2AD
  8
0
 10
-238.8021087646484
 20
0.0
 30
322.7092895507812
 70
   192
  0
VERTEX
  5
2AE
  8
0
 10
-236.195556640625
 20
0.0
 30
319.3822631835938
 70
   192
  0
VERTEX
  5
2AF
  8
0
 10
-234.0090484619141
 20
0.0
 30
315.7653198242188
 70
   192
  0
VERTEX
  5
2B0
  8
0
 10
-232.2744293212891
 20
0.0
 30
311.9111633300781
 70
   192
  0
VERTEX
  5
2B1
  8
0
 10
-231.0170288085938
 20
0.0
 30
307.8760375976562
 70
   192
  0
VERTEX
  5
2B2
  8
0
 10
-230.2551727294922
 20
0.0
 30
303.7187805175781
 70
   192
  0
VERTEX
  5
2B3
  8
0
 10
-230.0000152587891
 20
0.0
 30
299.5
 70
   192
  0
VERTEX
  5
2B4
  8
0
 10
-230.0000152587891
 20
-10.0
 30
299.5
 70
   192
  0
VERTEX
  5
2B5
  8
0
 10
-230.2551727294922
 20
-10.0
 30
303.7187805175781
 70
   192
  0
VERTEX
  5
2B6
  8
0
 10
-231.0170288085938
 20
-10.0
 30
307.8760375976562
 70
   192
  0
VERTEX
  5
2B7
  8
0
 10
-232.2744293212891
 20
-10.0
 30
311.9111633300781
 70
   192
  0
VERTEX
  5
2B8
  8
0
 10
-234.0090484619141
 20
-10.0
 30
315.7653198242188
 70
   192
  0
VERTEX
  5
2B9
  8
0
 10
-236.195556640625
 20
-10.0
 30
319.3822631835938
 70
   192
  0
VERTEX
  5
2BA
  8
0
 10
-238.8021087646484
 20
-10.0
 30
322.7092895507812
 70
   192
  0
VERTEX
  5
2BB
  8
0
 10
-241.7907104492188
 20
-10.0
 30
325.6978759765625
 70
   192
  0
VERTEX
  5
2BC
  8
0
 10
-245.1177368164062
 20
-10.0
 30
328.3044128417969
 70
   192
  0
VERTEX
  5
2BD
  8
0
 10
-248.7346954345703
 20
-10.0
 30
330.490966796875
 70
   192
  0
VERTEX
  5
2BE
  8
0
 10
-252.5888214111328
 20
-10.0
 30
332.2255859375
 70
   192
  0
VERTEX
  5
2BF
  8
0
 10
-256.6239318847656
 20
-10.0
 30
333.4829711914062
 70
   192
  0
VERTEX
  5
2C0
  8
0
 10
-260.7812194824219
 20
-10.0
 30
334.2448120117188
 70
   192
  0
VERTEX
  5
2C1
  8
0
 10
0.0
 20
0.0
 30
0.0
 70
   128
 71
     1
 72
     2
 73
    28
  0
VERTEX
  5
2C2
  8
0
 10
0.0
 20
0.0
 30
0.0
 70
   128
 71
    28
 72
     2
 73
     3
  0
VERTEX
  5
2C3
  8
0
 10
0.0
 20
0.0
 30
0.0
 70
   128
 71
    27
 72
     3
 73
     4
  0
VERTEX
  5
2C4
  8
0
 10
0.0
 20
0.0
 30
0.0
 70
   128
 71
    26
 72
     4
 73
     5
  0
VERTEX
  5
2C5
  8
0
 10
0.0
 20
0.0
 30
0.0
 70
   128
 71
    25
 72
     5
 73
     6
  0
VERTEX
  5
2C6
  8
0
 10
0.0
 20
0.0
 30
0.0
 70
   128
 71
    24
 72
     6
 73
     7
  0
VERTEX
  5
2C7
  8
0
 10
0.0
 20
0.0
 30
0.0
 70
   128
 71
    23
 72
     7
 73
     8
  0
VERTEX
  5
2C8
  8
0
 10
0.0
 20
0.0
 30
0.0
 70
   128
 71
    22
 72
     8
 73
     9
  0
VERTEX
  5
2C9
  8
0
 10
0.0
 20
0.0
 30
0.0
 70
   128
 71
    21
 72
     9
 73
    10
  0
VERTEX
  5
2CA
  8
0
 10
0.0
 20
0.0
 30
0.0
 70
   128
 71
    20
 72
    10
 73
    11
  0
VERTEX
  5
2CB
  8
0
 10
0.0
 20
0.0
 30
0.0
 70
   128
 71
    19
 72
    11
 73
    12
  0
VERTEX
  5
2CC
  8
0
 10
0.0
 20
0.0
 30
0.0
 70
   128
 71
    18
 72
    12
 73
    13
  0
VERTEX
  5
2CD
  8
0
 10
0.0
 20
0.0
 30
0.0
 70
   128
 71
    17
 72
    13
 73
    14
  0
VERTEX
  5
2CE
  8
0
 10
0.0
 20
0.0
 30
0.0
 70
   128
 71
    16
 72
    14
 73
    15
  0
VERTEX
  5
2CF
  8
0
 10
0.0
 20
0.0
 30
0.0
 70
   128
 71
    16
 72
    17
 73
    14
  0
VERTEX
  5
2D0
  8
0
 10
0.0
 20
0.0
 30
0.0
 70
   128
 71
    17
 72
    18
 73
    13
  0
VERTEX
  5
2D1
  8
0
 10
0.0
 20
0.0
 30
0.0
 70
   128
 71
    18
 72
    19
 73
    12
  0
VERTEX
  5
2D2
  8
0
 10
0.0
 20
0.0
 30
0.0
 70
   128
 71
    19
 72
    20
 73
    11
  0
VERTEX
  5
2D3
  8
0
 10
0.0
 20
0.0
 30
0.0
 70
   128
 71
    20
 72
    21
 73
    10
  0
VERTEX
  5
2D4
  8
0
 10
0.0
 20
0.0
 30
0.0
 70
   128
 71
    21
 72
    22
 73
     9
  0
VERTEX
  5
2D5
  8
0
 10
0.0
 20
0.0
 30
0.0
 70
   128
 71
    22
 72
    23
 73
     8
  0
VERTEX
  5
2D6
  8
0
 10
0.0
 20
0.0
 30
0.0
 70
   128
 71
    23
 72
    24
 73
     7
  0
VERTEX
  5
2D7
  8
0
 10
0.0
 20
0.0
 30
0.0
 70
   128
 71
    24
 72
    25
 73
     6
  0
VERTEX
  5
2D8
  8
0
 10
0.0
 20
0.0
 30
0.0
 70
   128
 71
    25
 72
    26
 73
     5
  0
VERTEX
  5
2D9
  8
0
 10
0.0
 20
0.0
 30
0.0
 70
   128
 71
    26
 72
    27
 73
     4
  0
VERTEX
  5
2DA
  8
0
 10
0.0
 20
0.0
 30
0.0
 70
   128
 71
    27
 72
    28
 73
     3
  0
SEQEND
  5
2DB
  8
LAYER1
 62
     7
  0
POLYLINE
  5
2DC
  8
LAYER1
 62
     7
 66
     1
 10
0.0
 20
0.0
 30
0.0
 70
    64
 71
     4
 72
     2
  0
VERTEX
  5
2DD
  8
0
 10
-335.0
 20
-10.0
 30
334.5
 70
   192
  0
VERTEX
  5
2DE
  8
0
 10
-335.0
 20
0.0
 30
334.5
 70
   192
  0
VERTEX
  5
2DF
  8
0
 10
-265.0
 20
0.0
 30
334.5
 70
   192
  0
VERTEX
  5
2E0
  8
0
 10
-265.0
 20
-10.0
 30
334.5
 70
   192
  0
VERTEX
  5
2E1
  8
0
 10
0.0
 20
0.0
 30
0.0
 70
   128
 71
     2
 72
     3
 73
     1
  0
VERTEX
  5
2E2
  8
0
 10
0.0
 20
0.0
 30
0.0
 70
   128
 71
     1
 72
     3
 73
     4
  0
SEQEND
  5
2E3
  8
LAYER1
 62
     7
  0
POLYLINE
  5
2E4
  8
LAYER1
 62
     7
 66
     1
 10
0.0
 20
0.0
 30
0.0
 70
    64
 71
    28
 72
    26
  0
VERTEX
  5
2E5
  8
0
 10
-370.0
 20
-10.0
 30
299.5
 70
   192
  0
VERTEX
  5
2E6
  8
0
 10
-370.0
 20
0.0
 30
299.5
 70
   192
  0
VERTEX
  5
2E7
  8
0
 10
-369.7448120117188
 20
0.0
 30
303.7187805175781
 70
   192
  0
VERTEX
  5
2E8
  8
0
 10
-368.9829406738281
 20
0.0
 30
307.8760375976562
 70
   192
  0
VERTEX
  5
2E9
  8
0
 10
-367.7255554199219
 20
0.0
 30
311.9111633300781
 70
   192
  0
VERTEX
  5
2EA
  8
0
 10
-365.990966796875
 20
0.0
 30
315.7653198242188
 70
   192
  0
VERTEX
  5
2EB
  8
0
 10
-363.804443359375
 20
0.0
 30
319.3822631835938
 70
   192
  0
VERTEX
  5
2EC
  8
0
 10
-361.1978759765625
 20
0.0
 30
322.7092895507812
 70
   192
  0
VERTEX
  5
2ED
  8
0
 10
-358.2092895507812
 20
0.0
 30
325.6978759765625
 70
   192
  0
VERTEX
  5
2EE
  8
0
 10
-354.8822631835938
 20
0.0
 30
328.3044128417969
 70
   192
  0
VERTEX
  5
2EF
  8
0
 10
-351.2653198242188
 20
0.0
 30
330.490966796875
 70
   192
  0
VERTEX
  5
2F0
  8
0
 10
-347.4111938476562
 20
0.0
 30
332.2255859375
 70
   192
  0
VERTEX
  5
2F1
  8
0
 10
-343.3760375976562
 20
0.0
 30
333.4829711914062
 70
   192
  0
VERTEX
  5
2F2
  8
0
 10
-339.2187805175781
 20
0.0
 30
334.2448120117188
 70
   192
  0
VERTEX
  5
2F3
  8
0
 10
-335.0
 20
0.0
 30
334.5
 70
   192
  0
VERTEX
  5
2F4
  8
0
 10
-335.0
 20
-10.0
 30
334.5
 70
   192
  0
VERTEX
  5
2F5
  8
0
 10
-339.2187805175781
 20
-10.0
 30
334.2448120117188
 70
   192
  0
VERTEX
  5
2F6
  8
0
 10
-343.3760375976562
 20
-10.0
 30
333.4829711914062
 70
   192
  0
VERTEX
  5
2F7
  8
0
 10
-347.4111938476562
 20
-10.0
 30
332.2255859375
 70
   192
  0
VERTEX
  5
2F8
  8
0
 10
-351.2653198242188
 20
-10.0
 30
330.490966796875
 70
   192
  0
VERTEX
  5
2F9
  8
0
 10
-354.8822631835938
 20
-10.0
 30
328.3044128417969
 70
   192
  0
VERTEX
  5
2FA
  8
0
 10
-358.2092895507812
 20
-10.0
 30
325.6978759765625
 70
   192
  0
VERTEX
  5
2FB
  8
0
 10
-361.1978759765625
 20
-10.0
 30
322.7092895507812
 70
   192
  0
VERTEX
  5
2FC
  8
0
 10
-363.804443359375
 20
-10.0
 30
319.3822631835938
 70
   192
  0
VERTEX
  5
2FD
  8
0
 10
-365.990966796875
 20
-10.0
 30
315.7653198242188
 70
   192
  0
VERTEX
  5
2FE
  8
0
 10
-367.7255554199219
 20
-10.0
 30
311.9111633300781
 70
   192
  0
VERTEX
  5
2FF
  8
0
 10
-368.9829406738281
 20
-10.0
 30
307.8760375976562
 70
   192
  0
VERTEX
  5
300
  8
0
 10
-369.7448120117188
 20
-10.0
 30
303.7187805175781
 70
   192
  0
VERTEX
  5
301
  8
0
 10
0.0
 20
0.0
 30
0.0
 70
   128
 71
     1
 72
     2
 73
    28
  0
VERTEX
  5
302
  8
0
 10
0.0
 20
0.0
 30
0.0
 70
   128
 71
    28
 72
     2
 73
     3
  0
VERTEX
  5
303
  8
0
 10
0.0
 20
0.0
 30
0.0
 70
   128
 71
    27
 72
     3
 73
     4
  0
VERTEX
  5
304
  8
0
 10
0.0
 20
0.0
 30
0.0
 70
   128
 71
    26
 72
     4
 73
     5
  0
VERTEX
  5
305
  8
0
 10
0.0
 20
0.0
 30
0.0
 70
   128
 71
    25
 72
     5
 73
     6
  0
VERTEX
  5
306
  8
0
 10
0.0
 20
0.0
 30
0.0
 70
   128
 71
    24
 72
     6
 73
     7
  0
VERTEX
  5
307
  8
0
 10
0.0
 20
0.0
 30
0.0
 70
   128
 71
    23
 72
     7
 73
     8
  0
VERTEX
  5
308
  8
0
 10
0.0
 20
0.0
 30
0.0
 70
   128
 71
    22
 72
     8
 73
     9
  0
VERTEX
  5
309
  8
0
 10
0.0
 20
0.0
 30
0.0
 70
   128
 71
    21
 72
     9
 73
    10
  0
VERTEX
  5
30A
  8
0
 10
0.0
 20
0.0
 30
0.0
 70
   128
 71
    20
 72
    10
 73
    11
  0
VERTEX
  5
30B
  8
0
 10
0.0
 20
0.0
 30
0.0
 70
   128
 71
    19
 72
    11
 73
    12
  0
VERTEX
  5
30C
  8
0
 10
0.0
 20
0.0
 30
0.0
 70
   128
 71
    18
 72
    12
 73
    13
  0
VERTEX
  5
30D
  8
0
 10
0.0
 20
0.0
 30
0.0
 70
   128
 71
    17
 72
    13
 73
    14
  0
VERTEX
  5
30E
  8
0
 10
0.0
 20
0.0
 30
0.0
 70
   128
 71
    16
 72
    14
 73
    15
  0
VERTEX
  5
30F
  8
0
 10
0.0
 20
0.0
 30
0.0
 70
   128
 71
    16
 72
    17
 73
    14
  0
VERTEX
  5
310
  8
0
 10
0.0
 20
0.0
 30
0.0
 70
   128
 71
    17
 72
    18
 73
    13
  0
VERTEX
  5
311
  8
0
 10
0.0
 20
0.0
 30
0.0
 70
   128
 71
    18
 72
    19
 73
    12
  0
VERTEX
  5
312
  8
0
 10
0.0
 20
0.0
 30
0.0
 70
   128
 71
    19
 72
    20
 73
    11
  0
VERTEX
  5
313
  8
0
 10
0.0
 20
0.0
 30
0.0
 70
   128
 71
    20
 72
    21
 73
    10
  0
VERTEX
  5
314
  8
0
 10
0.0
 20
0.0
 30
0.0
 70
   128
 71
    21
 72
    22
 73
     9
  0
VERTEX
  5
315
  8
0
 10
0.0
 20
0.0
 30
0.0
 70
   128
 71
    22
 72
    23
 73
     8
  0
VERTEX
  5
316
  8
0
 10
0.0
 20
0.0
 30
0.0
 70
   128
 71
    23
 72
    24
 73
     7
  0
VERTEX
  5
317
  8
0
 10
0.0
 20
0.0
 30
0.0
 70
   128
 71
    24
 72
    25
 73
     6
  0
VERTEX
  5
318
  8
0
 10
0.0
 20
0.0
 30
0.0
 70
   128
 71
    25
 72
    26
 73
     5
  0
VERTEX
  5
319
  8
0
 10
0.0
 20
0.0
 30
0.0
 70
   128
 71
    26
 72
    27
 73
     4
  0
VERTEX
  5
31A
  8
0
 10
0.0
 20
0.0
 30
0.0
 70
   128
 71
    27
 72
    28
 73
     3
  0
SEQEND
  5
31B
  8
LAYER1
 62
     7
  0
POLYLINE
  5
31C
  8
LAYER1
 62
     7
 66
     1
 10
0.0
 20
0.0
 30
0.0
 70
    64
 71
     4
 72
     2
  0
VERTEX
  5
31D
  8
0
 10
-370.0
 20
-10.0
 30
144.5
 70
   192
  0
VERTEX
  5
31E
  8
0
 10
-370.0
 20
0.0
 30
144.5
 70
   192
  0
VERTEX
  5
31F
  8
0
 10
-370.0
 20
0.0
 30
299.5
 70
   192
  0
VERTEX
  5
320
  8
0
 10
-370.0
 20
-10.0
 30
299.5
 70
   192
  0
VERTEX
  5
321
  8
0
 10
0.0
 20
0.0
 30
0.0
 70
   128
 71
     2
 72
     3
 73
     1
  0
VERTEX
  5
322
  8
0
 10
0.0
 20
0.0
 30
0.0
 70
   128
 71
     1
 72
     3
 73
     4
  0
SEQEND
  5
323
  8
LAYER1
 62
     7
  0
POLYLINE
  5
324
  8
LAYER1
 62
     7
 66
     1
 10
0.0
 20
0.0
 30
0.0
 70
    64
 71
     4
 72
     2
  0
VERTEX
  5
325
  8
0
 10
265.0
 20
0.0
 30
109.5
 70
   192
  0
VERTEX
  5
326
  8
0
 10
265.0
 20
-10.0
 30
109.5
 70
   192
  0
VERTEX
  5
327
  8
0
 10
335.0
 20
-10.0
 30
109.5
 70
   192
  0
VERTEX
  5
328
  8
0
 10
335.0
 20
0.0
 30
109.5
 70
   192
  0
VERTEX
  5
329
  8
0
 10
0.0
 20
0.0
 30
0.0
 70
   128
 71
     1
 72
     2
 73
     4
  0
VERTEX
  5
32A
  8
0
 10
0.0
 20
0.0
 30
0.0
 70
   128
 71
     4
 72
     2
 73
     3
  0
SEQEND
  5
32B
  8
LAYER1
 62
     7
  0
POLYLINE
  5
32C
  8
LAYER1
 62
     7
 66
     1
 10
0.0
 20
0.0
 30
0.0
 70
    64
 71
    28
 72
    26
  0
VERTEX
  5
32D
  8
0
 10
335.0
 20
0.0
 30
109.5
 70
   192
  0
VERTEX
  5
32E
  8
0
 10
335.0
 20
-10.0
 30
109.5
 70
   192
  0
VERTEX
  5
32F
  8
0
 10
339.2187805175781
 20
-10.0
 30
109.7551956176758
 70
   192
  0
VERTEX
  5
330
  8
0
 10
343.3760375976562
 20
-10.0
 30
110.5170288085938
 70
   192
  0
VERTEX
  5
331
  8
0
 10
347.4111938476562
 20
-10.0
 30
111.7744293212891
 70
   192
  0
VERTEX
  5
332
  8
0
 10
351.2653198242188
 20
-10.0
 30
113.509033203125
 70
   192
  0
VERTEX
  5
333
  8
0
 10
354.8822631835938
 20
-10.0
 30
115.6955642700195
 70
   192
  0
VERTEX
  5
334
  8
0
 10
358.2092895507812
 20
-10.0
 30
118.302131652832
 70
   192
  0
VERTEX
  5
335
  8
0
 10
361.1978759765625
 20
-10.0
 30
121.2907104492188
 70
   192
  0
VERTEX
  5
336
  8
0
 10
363.804443359375
 20
-10.0
 30
124.6177291870117
 70
   192
  0
VERTEX
  5
337
  8
0
 10
365.990966796875
 20
-10.0
 30
128.2346801757812
 70
   192
  0
VERTEX
  5
338
  8
0
 10
367.7255554199219
 20
-10.0
 30
132.0888214111328
 70
   192
  0
VERTEX
  5
339
  8
0
 10
368.9829406738281
 20
-10.0
 30
136.1239471435547
 70
   192
  0
VERTEX
  5
33A
  8
0
 10
369.7448120117188
 20
-10.0
 30
140.2812194824219
 70
   192
  0
VERTEX
  5
33B
  8
0
 10
370.0
 20
-10.0
 30
144.5
 70
   192
  0
VERTEX
  5
33C
  8
0
 10
370.0
 20
0.0
 30
144.5
 70
   192
  0
VERTEX
  5
33D
  8
0
 10
369.7448120117188
 20
0.0
 30
140.2812194824219
 70
   192
  0
VERTEX
  5
33E
  8
0
 10
368.9829406738281
 20
0.0
 30
136.1239471435547
 70
   192
  0
VERTEX
  5
33F
  8
0
 10
367.7255554199219
 20
0.0
 30
132.0888214111328
 70
   192
  0
VERTEX
  5
340
  8
0
 10
365.990966796875
 20
0.0
 30
128.2346801757812
 70
   192
  0
VERTEX
  5
341
  8
0
 10
363.804443359375
 20
0.0
 30
124.6177291870117
 70
   192
  0
VERTEX
  5
342
  8
0
 10
361.1978759765625
 20
0.0
 30
121.2907104492188
 70
   192
  0
VERTEX
  5
343
  8
0
 10
358.2092895507812
 20
0.0
 30
118.302131652832
 70
   192
  0
VERTEX
  5
344
  8
0
 10
354.8822631835938
 20
0.0
 30
115.6955642700195
 70
   192
  0
VERTEX
  5
345
  8
0
 10
351.2653198242188
 20
0.0
 30
113.509033203125
 70
   192
  0
VERTEX
  5
346
  8
0
 10
347.4111938476562
 20
0.0
 30
111.7744293212891
 70
   192
  0
VERTEX
  5
347
  8
0
 10
343.3760375976562
 20
0.0
 30
110.5170288085938
 70
   192
  0
VERTEX
  5
348
  8
0
 10
339.2187805175781
 20
0.0
 30
109.7551956176758
 70
   192
  0
VERTEX
  5
349
  8
0
 10
0.0
 20
0.0
 30
0.0
 70
   128
 71
     1
 72
     2
 73
    28
  0
VERTEX
  5
34A
  8
0
 10
0.0
 20
0.0
 30
0.0
 70
   128
 71
    28
 72
     2
 73
     3
  0
VERTEX
  5
34B
  8
0
 10
0.0
 20
0.0
 30
0.0
 70
   128
 71
    27
 72
     3
 73
     4
  0
VERTEX
  5
34C
  8
0
 10
0.0
 20
0.0
 30
0.0
 70
   128
 71
    26
 72
     4
 73
     5
  0
VERTEX
  5
34D
  8
0
 10
0.0
 20
0.0
 30
0.0
 70
   128
 71
    25
 72
     5
 73
     6
  0
VERTEX
  5
34E
  8
0
 10
0.0
 20
0.0
 30
0.0
 70
   128
 71
    24
 72
     6
 73
     7
  0
VERTEX
  5
34F
  8
0
 10
0.0
 20
0.0
 30
0.0
 70
   128
 71
    23
 72
     7
 73
     8
  0
VERTEX
  5
350
  8
0
 10
0.0
 20
0.0
 30
0.0
 70
   128
 71
    22
 72
     8
 73
     9
  0
VERTEX
  5
351
  8
0
 10
0.0
 20
0.0
 30
0.0
 70
   128
 71
    21
 72
     9
 73
    10
  0
VERTEX
  5
352
  8
0
 10
0.0
 20
0.0
 30
0.0
 70
   128
 71
    20
 72
    10
 73
    11
  0
VERTEX
  5
353
  8
0
 10
0.0
 20
0.0
 30
0.0
 70
   128
 71
    19
 72
    11
 73
    12
  0
VERTEX
  5
354
  8
0
 10
0.0
 20
0.0
 30
0.0
 70
   128
 71
    18
 72
    12
 73
    13
  0
VERTEX
  5
355
  8
0
 10
0.0
 20
0.0
 30
0.0
 70
   128
 71
    17
 72
    13
 73
    14
  0
VERTEX
  5
356
  8
0
 10
0.0
 20
0.0
 30
0.0
 70
   128
 71
    16
 72
    14
 73
    15
  0
VERTEX
  5
357
  8
0
 10
0.0
 20
0.0
 30
0.0
 70
   128
 71
    16
 72
    17
 73
    14
  0
VERTEX
  5
358
  8
0
 10
0.0
 20
0.0
 30
0.0
 70
   128
 71
    17
 72
    18
 73
    13
  0
VERTEX
  5
359
  8
0
 10
0.0
 20
0.0
 30
0.0
 70
   128
 71
    18
 72
    19
 73
    12
  0
VERTEX
  5
35A
  8
0
 10
0.0
 20
0.0
 30
0.0
 70
   128
 71
    19
 72
    20
 73
    11
  0
VERTEX
  5
35B
  8
0
 10
0.0
 20
0.0
 30
0.0
 70
   128
 71
    20
 72
    21
 73
    10
  0
VERTEX
  5
35C
  8
0
 10
0.0
 20
0.0
 30
0.0
 70
   128
 71
    21
 72
    22
 73
     9
  0
VERTEX
  5
35D
  8
0
 10
0.0
 20
0.0
 30
0.0
 70
   128
 71
    22
 72
    23
 73
     8
  0
VERTEX
  5
35E
  8
0
 10
0.0
 20
0.0
 30
0.0
 70
   128
 71
    23
 72
    24
 73
     7
  0
VERTEX
  5
35F
  8
0
 10
0.0
 20
0.0
 30
0.0
 70
   128
 71
    24
 72
    25
 73
     6
  0
VERTEX
  5
360
  8
0
 10
0.0
 20
0.0
 30
0.0
 70
   128
 71
    25
 72
    26
 73
     5
  0
VERTEX
  5
361
  8
0
 10
0.0
 20
0.0
 30
0.0
 70
   128
 71
    26
 72
    27
 73
     4
  0
VERTEX
  5
362
  8
0
 10
0.0
 20
0.0
 30
0.0
 70
   128
 71
    27
 72
    28
 73
     3
  0
SEQEND
  5
363
  8
LAYER1
 62
     7
  0
POLYLINE
  5
364
  8
LAYER1
 62
     7
 66
     1
 10
0.0
 20
0.0
 30
0.0
 70
    64
 71
     4
 72
     2
  0
VERTEX
  5
365
  8
0
 10
370.0
 20
0.0
 30
144.5
 70
   192
  0
VERTEX
  5
366
  8
0
 10
370.0
 20
-10.0
 30
144.5
 70
   192
  0
VERTEX
  5
367
  8
0
 10
370.0
 20
-10.0
 30
299.5
 70
   192
  0
VERTEX
  5
368
  8
0
 10
370.0
 20
0.0
 30
299.5
 70
   192
  0
VERTEX
  5
369
  8
0
 10
0.0
 20
0.0
 30
0.0
 70
   128
 71
     1
 72
     2
 73
     4
  0
VERTEX
  5
36A
  8
0
 10
0.0
 20
0.0
 30
0.0
 70
   128
 71
     4
 72
     2
 73
     3
  0
SEQEND
  5
36B
  8
LAYER1
 62
     7
  0
POLYLINE
  5
36C
  8
LAYER1
 62
     7
 66
     1
 10
0.0
 20
0.0
 30
0.0
 70
    64
 71
    28
 72
    26
  0
VERTEX
  5
36D
  8
0
 10
370.0
 20
0.0
 30
299.5
 70
   192
  0
VERTEX
  5
36E
  8
0
 10
370.0
 20
-10.0
 30
299.5
 70
   192
  0
VERTEX
  5
36F
  8
0
 10
369.7448120117188
 20
-10.0
 30
303.7187805175781
 70
   192
  0
VERTEX
  5
370
  8
0
 10
368.9829406738281
 20
-10.0
 30
307.8760375976562
 70
   192
  0
VERTEX
  5
371
  8
0
 10
367.7255554199219
 20
-10.0
 30
311.9111633300781
 70
   192
  0
VERTEX
  5
372
  8
0
 10
365.990966796875
 20
-10.0
 30
315.7653198242188
 70
   192
  0
VERTEX
  5
373
  8
0
 10
363.804443359375
 20
-10.0
 30
319.3822631835938
 70
   192
  0
VERTEX
  5
374
  8
0
 10
361.1978759765625
 20
-10.0
 30
322.7092895507812
 70
   192
  0
VERTEX
  5
375
  8
0
 10
358.2092895507812
 20
-10.0
 30
325.6978759765625
 70
   192
  0
VERTEX
  5
376
  8
0
 10
354.8822631835938
 20
-10.0
 30
328.3044128417969
 70
   192
  0
VERTEX
  5
377
  8
0
 10
351.2653198242188
 20
-10.0
 30
330.490966796875
 70
   192
  0
VERTEX
  5
378
  8
0
 10
347.4111938476562
 20
-10.0
 30
332.2255859375
 70
   192
  0
VERTEX
  5
379
  8
0
 10
343.3760375976562
 20
-10.0
 30
333.4829711914062
 70
   192
  0
VERTEX
  5
37A
  8
0
 10
339.2187805175781
 20
-10.0
 30
334.2448120117188
 70
   192
  0
VERTEX
  5
37B
  8
0
 10
335.0
 20
-10.0
 30
334.5
 70
   192
  0
VERTEX
  5
37C
  8
0
 10
335.0
 20
0.0
 30
334.5
 70
   192
  0
VERTEX
  5
37D
  8
0
 10
339.2187805175781
 20
0.0
 30
334.2448120117188
 70
   192
  0
VERTEX
  5
37E
  8
0
 10
343.3760375976562
 20
0.0
 30
333.4829711914062
 70
   192
  0
VERTEX
  5
37F
  8
0
 10
347.4111938476562
 20
0.0
 30
332.2255859375
 70
   192
  0
VERTEX
  5
380
  8
0
 10
351.2653198242188
 20
0.0
 30
330.490966796875
 70
   192
  0
VERTEX
  5
381
  8
0
 10
354.8822631835938
 20
0.0
 30
328.3044128417969
 70
   192
  0
VERTEX
  5
382
  8
0
 10
358.2092895507812
 20
0.0
 30
325.6978759765625
 70
   192
  0
VERTEX
  5
383
  8
0
 10
361.1978759765625
 20
0.0
 30
322.7092895507812
 70
   192
  0
VERTEX
  5
384
  8
0
 10
363.804443359375
 20
0.0
 30
319.3822631835938
 70
   192
  0
VERTEX
  5
385
  8
0
 10
365.990966796875
 20
0.0
 30
315.7653198242188
 70
   192
  0
VERTEX
  5
386
  8
0
 10
367.7255554199219
 20
0.0
 30
311.9111633300781
 70
   192
  0
VERTEX
  5
387
  8
0
 10
368.9829406738281
 20
0.0
 30
307.8760375976562
 70
   192
  0
VERTEX
  5
388
  8
0
 10
369.7448120117188
 20
0.0
 30
303.7187805175781
 70
   192
  0
VERTEX
  5
389
  8
0
 10
0.0
 20
0.0
 30
0.0
 70
   128
 71
     1
 72
     2
 73
    28
  0
VERTEX
  5
38A
  8
0
 10
0.0
 20
0.0
 30
0.0
 70
   128
 71
    28
 72
     2
 73
     3
  0
VERTEX
  5
38B
  8
0
 10
0.0
 20
0.0
 30
0.0
 70
   128
 71
    27
 72
     3
 73
     4
  0
VERTEX
  5
38C
  8
0
 10
0.0
 20
0.0
 30
0.0
 70
   128
 71
    26
 72
     4
 73
     5
  0
VERTEX
  5
38D
  8
0
 10
0.0
 20
0.0
 30
0.0
 70
   128
 71
    25
 72
     5
 73
     6
  0
VERTEX
  5
38E
  8
0
 10
0.0
 20
0.0
 30
0.0
 70
   128
 71
    24
 72
     6
 73
     7
  0
VERTEX
  5
38F
  8
0
 10
0.0
 20
0.0
 30
0.0
 70
   128
 71
    23
 72
     7
 73
     8
  0
VERTEX
  5
390
  8
0
 10
0.0
 20
0.0
 30
0.0
 70
   128
 71
    22
 72
     8
 73
     9
  0
VERTEX
  5
391
  8
0
 10
0.0
 20
0.0
 30
0.0
 70
   128
 71
    21
 72
     9
 73
    10
  0
VERTEX
  5
392
  8
0
 10
0.0
 20
0.0
 30
0.0
 70
   128
 71
    20
 72
    10
 73
    11
  0
VERTEX
  5
393
  8
0
 10
0.0
 20
0.0
 30
0.0
 70
   128
 71
    19
 72
    11
 73
    12
  0
VERTEX
  5
394
  8
0
 10
0.0
 20
0.0
 30
0.0
 70
   128
 71
    18
 72
    12
 73
    13
  0
VERTEX
  5
395
  8
0
 10
0.0
 20
0.0
 30
0.0
 70
   128
 71
    17
 72
    13
 73
    14
  0
VERTEX
  5
396
  8
0
 10
0.0
 20
0.0
 30
0.0
 70
   128
 71
    16
 72
    14
 73
    15
  0
VERTEX
  5
397
  8
0
 10
0.0
 20
0.0
 30
0.0
 70
   128
 71
    16
 72
    17
 73
    14
  0
VERTEX
  5
398
  8
0
 10
0.0
 20
0.0
 30
0.0
 70
   128
 71
    17
 72
    18
 73
    13
  0
VERTEX
  5
399
  8
0
 10
0.0
 20
0.0
 30
0.0
 70
   128
 71
    18
 72
    19
 73
    12
  0
VERTEX
  5
39A
  8
0
 10
0.0
 20
0.0
 30
0.0
 70
   128
 71
    19
 72
    20
 73
    11
  0
VERTEX
  5
39B
  8
0
 10
0.0
 20
0.0
 30
0.0
 70
   128
 71
    20
 72
    21
 73
    10
  0
VERTEX
  5
39C
  8
0
 10
0.0
 20
0.0
 30
0.0
 70
   128
 71
    21
 72
    22
 73
     9
  0
VERTEX
  5
39D
  8
0
 10
0.0
 20
0.0
 30
0.0
 70
   128
 71
    22
 72
    23
 73
     8
  0
VERTEX
  5
39E
  8
0
 10
0.0
 20
0.0
 30
0.0
 70
   128
 71
    23
 72
    24
 73
     7
  0
VERTEX
  5
39F
  8
0
 10
0.0
 20
0.0
 30
0.0
 70
   128
 71
    24
 72
    25
 73
     6
  0
VERTEX
  5
3A0
  8
0
 10
0.0
 20
0.0
 30
0.0
 70
   128
 71
    25
 72
    26
 73
     5
  0
VERTEX
  5
3A1
  8
0
 10
0.0
 20
0.0
 30
0.0
 70
   128
 71
    26
 72
    27
 73
     4
  0
VERTEX
  5
3A2
  8
0
 10
0.0
 20
0.0
 30
0.0
 70
   128
 71
    27
 72
    28
 73
     3
  0
SEQEND
  5
3A3
  8
LAYER1
 62
     7
  0
POLYLINE
  5
3A4
  8
LAYER1
 62
     7
 66
     1
 10
0.0
 20
0.0
 30
0.0
 70
    64
 71
     4
 72
     2
  0
VERTEX
  5
3A5
  8
0
 10
335.0
 20
0.0
 30
334.5
 70
   192
  0
VERTEX
  5
3A6
  8
0
 10
335.0
 20
-10.0
 30
334.5
 70
   192
  0
VERTEX
  5
3A7
  8
0
 10
265.0
 20
-10.0
 30
334.5
 70
   192
  0
VERTEX
  5
3A8
  8
0
 10
265.0
 20
0.0
 30
334.5
 70
   192
  0
VERTEX
  5
3A9
  8
0
 10
0.0
 20
0.0
 30
0.0
 70
   128
 71
     2
 72
     3
 73
     1
  0
VERTEX
  5
3AA
  8
0
 10
0.0
 20
0.0
 30
0.0
 70
   128
 71
     1
 72
     3
 73
     4
  0
SEQEND
  5
3AB
  8
LAYER1
 62
     7
  0
POLYLINE
  5
3AC
  8
LAYER1
 62
     7
 66
     1
 10
0.0
 20
0.0
 30
0.0
 70
    64
 71
    28
 72
    26
  0
VERTEX
  5
3AD
  8
0
 10
265.0
 20
0.0
 30
334.5
 70
   192
  0
VERTEX
  5
3AE
  8
0
 10
265.0
 20
-10.0
 30
334.5
 70
   192
  0
VERTEX
  5
3AF
  8
0
 10
260.7812194824219
 20
-10.0
 30
334.2448120117188
 70
   192
  0
VERTEX
  5
3B0
  8
0
 10
256.6239318847656
 20
-10.0
 30
333.4829711914062
 70
   192
  0
VERTEX
  5
3B1
  8
0
 10
252.5888214111328
 20
-10.0
 30
332.2255859375
 70
   192
  0
VERTEX
  5
3B2
  8
0
 10
248.7346954345703
 20
-10.0
 30
330.490966796875
 70
   192
  0
VERTEX
  5
3B3
  8
0
 10
245.1177368164062
 20
-10.0
 30
328.3044128417969
 70
   192
  0
VERTEX
  5
3B4
  8
0
 10
241.7907104492188
 20
-10.0
 30
325.6978759765625
 70
   192
  0
VERTEX
  5
3B5
  8
0
 10
238.8021087646484
 20
-10.0
 30
322.7092895507812
 70
   192
  0
VERTEX
  5
3B6
  8
0
 10
236.195556640625
 20
-10.0
 30
319.3822631835938
 70
   192
  0
VERTEX
  5
3B7
  8
0
 10
234.0090484619141
 20
-10.0
 30
315.7653198242188
 70
   192
  0
VERTEX
  5
3B8
  8
0
 10
232.2744293212891
 20
-10.0
 30
311.9111633300781
 70
   192
  0
VERTEX
  5
3B9
  8
0
 10
231.0170288085938
 20
-10.0
 30
307.8760375976562
 70
   192
  0
VERTEX
  5
3BA
  8
0
 10
230.2551727294922
 20
-10.0
 30
303.7187805175781
 70
   192
  0
VERTEX
  5
3BB
  8
0
 10
230.0000152587891
 20
-10.0
 30
299.5
 70
   192
  0
VERTEX
  5
3BC
  8
0
 10
230.0000152587891
 20
0.0
 30
299.5
 70
   192
  0
VERTEX
  5
3BD
  8
0
 10
230.2551727294922
 20
0.0
 30
303.7187805175781
 70
   192
  0
VERTEX
  5
3BE
  8
0
 10
231.0170288085938
 20
0.0
 30
307.8760375976562
 70
   192
  0
VERTEX
  5
3BF
  8
0
 10
232.2744293212891
 20
0.0
 30
311.9111633300781
 70
   192
  0
VERTEX
  5
3C0
  8
0
 10
234.0090484619141
 20
0.0
 30
315.7653198242188
 70
   192
  0
VERTEX
  5
3C1
  8
0
 10
236.195556640625
 20
0.0
 30
319.3822631835938
 70
   192
  0
VERTEX
  5
3C2
  8
0
 10
238.8021087646484
 20
0.0
 30
322.7092895507812
 70
   192
  0
VERTEX
  5
3C3
  8
0
 10
241.7907104492188
 20
0.0
 30
325.6978759765625
 70
   192
  0
VERTEX
  5
3C4
  8
0
 10
245.1177368164062
 20
0.0
 30
328.3044128417969
 70
   192
  0
VERTEX
  5
3C5
  8
0
 10
248.7346954345703
 20
0.0
 30
330.490966796875
 70
   192
  0
VERTEX
  5
3C6
  8
0
 10
252.5888214111328
 20
0.0
 30
332.2255859375
 70
   192
  0
VERTEX
  5
3C7
  8
0
 10
256.6239318847656
 20
0.0
 30
333.4829711914062
 70
   192
  0
VERTEX
  5
3C8
  8
0
 10
260.7812194824219
 20
0.0
 30
334.2448120117188
 70
   192
  0
VERTEX
  5
3C9
  8
0
 10
0.0
 20
0.0
 30
0.0
 70
   128
 71
     1
 72
     2
 73
    28
  0
VERTEX
  5
3CA
  8
0
 10
0.0
 20
0.0
 30
0.0
 70
   128
 71
    28
 72
     2
 73
     3
  0
VERTEX
  5
3CB
  8
0
 10
0.0
 20
0.0
 30
0.0
 70
   128
 71
    27
 72
     3
 73
     4
  0
VERTEX
  5
3CC
  8
0
 10
0.0
 20
0.0
 30
0.0
 70
   128
 71
    26
 72
     4
 73
     5
  0
VERTEX
  5
3CD
  8
0
 10
0.0
 20
0.0
 30
0.0
 70
   128
 71
    25
 72
     5
 73
     6
  0
VERTEX
  5
3CE
  8
0
 10
0.0
 20
0.0
 30
0.0
 70
   128
 71
    24
 72
     6
 73
     7
  0
VERTEX
  5
3CF
  8
0
 10
0.0
 20
0.0
 30
0.0
 70
   128
 71
    23
 72
     7
 73
     8
  0
VERTEX
  5
3D0
  8
0
 10
0.0
 20
0.0
 30
0.0
 70
   128
 71
    22
 72
     8
 73
     9
  0
VERTEX
  5
3D1
  8
0
 10
0.0
 20
0.0
 30
0.0
 70
   128
 71
    21
 72
     9
 73
    10
  0
VERTEX
  5
3D2
  8
0
 10
0.0
 20
0.0
 30
0.0
 70
   128
 71
    20
 72
    10
 73
    11
  0
VERTEX
  5
3D3
  8
0
 10
0.0
 20
0.0
 30
0.0
 70
   128
 71
    19
 72
    11
 73
    12
  0
VERTEX
  5
3D4
  8
0
 10
0.0
 20
0.0
 30
0.0
 70
   128
 71
    18
 72
    12
 73
    13
  0
VERTEX
  5
3D5
  8
0
 10
0.0
 20
0.0
 30
0.0
 70
   128
 71
    17
 72
    13
 73
    14
  0
VERTEX
  5
3D6
  8
0
 10
0.0
 20
0.0
 30
0.0
 70
   128
 71
    16
 72
    14
 73
    15
  0
VERTEX
  5
3D7
  8
0
 10
0.0
 20
0.0
 30
0.0
 70
   128
 71
    16
 72
    17
 73
    14
  0
VERTEX
  5
3D8
  8
0
 10
0.0
 20
0.0
 30
0.0
 70
   128
 71
    17
 72
    18
 73
    13
  0
VERTEX
  5
3D9
  8
0
 10
0.0
 20
0.0
 30
0.0
 70
   128
 71
    18
 72
    19
 73
    12
  0
VERTEX
  5
3DA
  8
0
 10
0.0
 20
0.0
 30
0.0
 70
   128
 71
    19
 72
    20
 73
    11
  0
VERTEX
  5
3DB
  8
0
 10
0.0
 20
0.0
 30
0.0
 70
   128
 71
    20
 72
    21
 73
    10
  0
VERTEX
  5
3DC
  8
0
 10
0.0
 20
0.0
 30
0.0
 70
   128
 71
    21
 72
    22
 73
     9
  0
VERTEX
  5
3DD
  8
0
 10
0.0
 20
0.0
 30
0.0
 70
   128
 71
    22
 72
    23
 73
     8
  0
VERTEX
  5
3DE
  8
0
 10
0.0
 20
0.0
 30
0.0
 70
   128
 71
    23
 72
    24
 73
     7
  0
VERTEX
  5
3DF
  8
0
 10
0.0
 20
0.0
 30
0.0
 70
   128
 71
    24
 72
    25
 73
     6
  0
VERTEX
  5
3E0
  8
0
 10
0.0
 20
0.0
 30
0.0
 70
   128
 71
    25
 72
    26
 73
     5
  0
VERTEX
  5
3E1
  8
0
 10
0.0
 20
0.0
 30
0.0
 70
   128
 71
    26
 72
    27
 73
     4
  0
VERTEX
  5
3E2
  8
0
 10
0.0
 20
0.0
 30
0.0
 70
   128
 71
    27
 72
    28
 73
     3
  0
SEQEND
  5
3E3
  8
LAYER1
 62
     7
  0
POLYLINE
  5
3E4
  8
LAYER1
 62
     7
 66
     1
 10
0.0
 20
0.0
 30
0.0
 70
    64
 71
     4
 72
     2
  0
VERTEX
  5
3E5
  8
0
 10
230.0000152587891
 20
0.0
 30
299.5
 70
   192
  0
VERTEX
  5
3E6
  8
0
 10
230.0000152587891
 20
-10.0
 30
299.5
 70
   192
  0
VERTEX
  5
3E7
  8
0
 10
230.0000152587891
 20
-10.0
 30
144.5
 70
   192
  0
VERTEX
  5
3E8
  8
0
 10
230.0000152587891
 20
0.0
 30
144.5
 70
   192
  0
VERTEX
  5
3E9
  8
0
 10
0.0
 20
0.0
 30
0.0
 70
   128
 71
     2
 72
     3
 73
     1
  0
VERTEX
  5
3EA
  8
0
 10
0.0
 20
0.0
 30
0.0
 70
   128
 71
     1
 72
     3
 73
     4
  0
SEQEND
  5
3EB
  8
LAYER1
 62
     7
  0
POLYLINE
  5
3EC
  8
LAYER1
 62
     7
 66
     1
 10
0.0
 20
0.0
 30
0.0
 70
    64
 71
    28
 72
    26
  0
VERTEX
  5
3ED
  8
0
 10
230.0000152587891
 20
0.0
 30
144.5
 70
   192
  0
VERTEX
  5
3EE
  8
0
 10
230.0000152587891
 20
-10.0
 30
144.5
 70
   192
  0
VERTEX
  5
3EF
  8
0
 10
230.2551727294922
 20
-10.0
 30
140.2812194824219
 70
   192
  0
VERTEX
  5
3F0
  8
0
 10
231.0170288085938
 20
-10.0
 30
136.1239471435547
 70
   192
  0
VERTEX
  5
3F1
  8
0
 10
232.2744293212891
 20
-10.0
 30
132.0888214111328
 70
   192
  0
VERTEX
  5
3F2
  8
0
 10
234.0090484619141
 20
-10.0
 30
128.2346801757812
 70
   192
  0
VERTEX
  5
3F3
  8
0
 10
236.195556640625
 20
-10.0
 30
124.6177291870117
 70
   192
  0
VERTEX
  5
3F4
  8
0
 10
238.8021087646484
 20
-10.0
 30
121.2907104492188
 70
   192
  0
VERTEX
  5
3F5
  8
0
 10
241.7907104492188
 20
-10.0
 30
118.302131652832
 70
   192
  0
VERTEX
  5
3F6
  8
0
 10
245.1177368164062
 20
-10.0
 30
115.6955642700195
 70
   192
  0
VERTEX
  5
3F7
  8
0
 10
248.7346954345703
 20
-10.0
 30
113.509033203125
 70
   192
  0
VERTEX
  5
3F8
  8
0
 10
252.5888214111328
 20
-10.0
 30
111.7744293212891
 70
   192
  0
VERTEX
  5
3F9
  8
0
 10
256.6239318847656
 20
-10.0
 30
110.5170288085938
 70
   192
  0
VERTEX
  5
3FA
  8
0
 10
260.7812194824219
 20
-10.0
 30
109.7551956176758
 70
   192
  0
VERTEX
  5
3FB
  8
0
 10
265.0
 20
-10.0
 30
109.5
 70
   192
  0
VERTEX
  5
3FC
  8
0
 10
265.0
 20
0.0
 30
109.5
 70
   192
  0
VERTEX
  5
3FD
  8
0
 10
260.7812194824219
 20
0.0
 30
109.7551956176758
 70
   192
  0
VERTEX
  5
3FE
  8
0
 10
256.6239318847656
 20
0.0
 30
110.5170288085938
 70
   192
  0
VERTEX
  5
3FF
  8
0
 10
252.5888214111328
 20
0.0
 30
111.7744293212891
 70
   192
  0
VERTEX
  5
400
  8
0
 10
248.7346954345703
 20
0.0
 30
113.509033203125
 70
   192
  0
VERTEX
  5
401
  8
0
 10
245.1177368164062
 20
0.0
 30
115.6955642700195
 70
   192
  0
VERTEX
  5
402
  8
0
 10
241.7907104492188
 20
0.0
 30
118.302131652832
 70
   192
  0
VERTEX
  5
403
  8
0
 10
238.8021087646484
 20
0.0
 30
121.2907104492188
 70
   192
  0
VERTEX
  5
404
  8
0
 10
236.195556640625
 20
0.0
 30
124.6177291870117
 70
   192
  0
VERTEX
  5
405
  8
0
 10
234.0090484619141
 20
0.0
 30
128.2346801757812
 70
   192
  0
VERTEX
  5
406
  8
0
 10
232.2744293212891
 20
0.0
 30
132.0888214111328
 70
   192
  0
VERTEX
  5
407
  8
0
 10
231.0170288085938
 20
0.0
 30
136.1239471435547
 70
   192
  0
VERTEX
  5
408
  8
0
 10
230.2551727294922
 20
0.0
 30
140.2812194824219
 70
   192
  0
VERTEX
  5
409
  8
0
 10
0.0
 20
0.0
 30
0.0
 70
   128
 71
     1
 72
     2
 73
    28
  0
VERTEX
  5
40A
  8
0
 10
0.0
 20
0.0
 30
0.0
 70
   128
 71
    28
 72
     2
 73
     3
  0
VERTEX
  5
40B
  8
0
 10
0.0
 20
0.0
 30
0.0
 70
   128
 71
    27
 72
     3
 73
     4
  0
VERTEX
  5
40C
  8
0
 10
0.0
 20
0.0
 30
0.0
 70
   128
 71
    26
 72
     4
 73
     5
  0
VERTEX
  5
40D
  8
0
 10
0.0
 20
0.0
 30
0.0
 70
   128
 71
    25
 72
     5
 73
     6
  0
VERTEX
  5
40E
  8
0
 10
0.0
 20
0.0
 30
0.0
 70
   128
 71
    24
 72
     6
 73
     7
  0
VERTEX
  5
40F
  8
0
 10
0.0
 20
0.0
 30
0.0
 70
   128
 71
    23
 72
     7
 73
     8
  0
VERTEX
  5
410
  8
0
 10
0.0
 20
0.0
 30
0.0
 70
   128
 71
    22
 72
     8
 73
     9
  0
VERTEX
  5
411
  8
0
 10
0.0
 20
0.0
 30
0.0
 70
   128
 71
    21
 72
     9
 73
    10
  0
VERTEX
  5
412
  8
0
 10
0.0
 20
0.0
 30
0.0
 70
   128
 71
    20
 72
    10
 73
    11
  0
VERTEX
  5
413
  8
0
 10
0.0
 20
0.0
 30
0.0
 70
   128
 71
    19
 72
    11
 73
    12
  0
VERTEX
  5
414
  8
0
 10
0.0
 20
0.0
 30
0.0
 70
   128
 71
    18
 72
    12
 73
    13
  0
VERTEX
  5
415
  8
0
 10
0.0
 20
0.0
 30
0.0
 70
   128
 71
    17
 72
    13
 73
    14
  0
VERTEX
  5
416
  8
0
 10
0.0
 20
0.0
 30
0.0
 70
   128
 71
    16
 72
    14
 73
    15
  0
VERTEX
  5
417
  8
0
 10
0.0
 20
0.0
 30
0.0
 70
   128
 71
    16
 72
    17
 73
    14
  0
VERTEX
  5
418
  8
0
 10
0.0
 20
0.0
 30
0.0
 70
   128
 71
    17
 72
    18
 73
    13
  0
VERTEX
  5
419
  8
0
 10
0.0
 20
0.0
 30
0.0
 70
   128
 71
    18
 72
    19
 73
    12
  0
VERTEX
  5
41A
  8
0
 10
0.0
 20
0.0
 30
0.0
 70
   128
 71
    19
 72
    20
 73
    11
  0
VERTEX
  5
41B
  8
0
 10
0.0
 20
0.0
 30
0.0
 70
   128
 71
    20
 72
    21
 73
    10
  0
VERTEX
  5
41C
  8
0
 10
0.0
 20
0.0
 30
0.0
 70
   128
 71
    21
 72
    22
 73
     9
  0
VERTEX
  5
41D
  8
0
 10
0.0
 20
0.0
 30
0.0
 70
   128
 71
    22
 72
    23
 73
     8
  0
VERTEX
  5
41E
  8
0
 10
0.0
 20
0.0
 30
0.0
 70
   128
 71
    23
 72
    24
 73
     7
  0
VERTEX
  5
41F
  8
0
 10
0.0
 20
0.0
 30
0.0
 70
   128
 71
    24
 72
    25
 73
     6
  0
VERTEX
  5
420
  8
0
 10
0.0
 20
0.0
 30
0.0
 70
   128
 71
    25
 72
    26
 73
     5
  0
VERTEX
  5
421
  8
0
 10
0.0
 20
0.0
 30
0.0
 70
   128
 71
    26
 72
    27
 73
     4
  0
VERTEX
  5
422
  8
0
 10
0.0
 20
0.0
 30
0.0
 70
   128
 71
    27
 72
    28
 73
     3
  0
SEQEND
  5
423
  8
LAYER1
 62
     7
  0
POLYLINE
  5
424
  8
LAYER1
 62
     7
 66
     1
 10
0.0
 20
0.0
 30
0.0
 70
    64
 71
     4
 72
     2
  0
VERTEX
  5
425
  8
0
 10
-603.0
 20
-8.0
 30
442.0
 70
   192
  0
VERTEX
  5
426
  8
0
 10
-603.0
 20
-8.0
 30
2.0
 70
   192
  0
VERTEX
  5
427
  8
0
 10
-601.0
 20
-10.0
 30
2.0
 70
   192
  0
VERTEX
  5
428
  8
0
 10
-601.0
 20
-10.0
 30
442.0
 70
   192
  0
VERTEX
  5
429
  8
0
 10
0.0
 20
0.0
 30
0.0
 70
   128
 71
     2
 72
     3
 73
     1
  0
VERTEX
  5
42A
  8
0
 10
0.0
 20
0.0
 30
0.0
 70
   128
 71
     1
 72
     3
 73
     4
  0
SEQEND
  5
42B
  8
LAYER1
 62
     7
  0
POLYLINE
  5
42C
  8
LAYER1
 62
     7
 66
     1
 10
0.0
 20
0.0
 30
0.0
 70
    64
 71
     3
 72
     1
  0
VERTEX
  5
42D
  8
0
 10
-601.0
 20
-10.0
 30
442.0
 70
   192
  0
VERTEX
  5
42E
  8
0
 10
-601.0
 20
-8.0
 30
443.9999694824219
 70
   192
  0
VERTEX
  5
42F
  8
0
 10
-603.0
 20
-8.0
 30
442.0
 70
   192
  0
VERTEX
  5
430
  8
0
 10
0.0
 20
0.0
 30
0.0
 70
   128
 71
     1
 72
     2
 73
     3
  0
SEQEND
  5
431
  8
LAYER1
 62
     7
  0
POLYLINE
  5
432
  8
LAYER1
 62
     7
 66
     1
 10
0.0
 20
0.0
 30
0.0
 70
    64
 71
     4
 72
     2
  0
VERTEX
  5
433
  8
0
 10
-601.0
 20
-8.0
 30
443.9999694824219
 70
   192
  0
VERTEX
  5
434
  8
0
 10
-601.0
 20
-2.0
 30
443.9999694824219
 70
   192
  0
VERTEX
  5
435
  8
0
 10
-603.0
 20
-2.0
 30
442.0
 70
   192
  0
VERTEX
  5
436
  8
0
 10
-603.0
 20
-8.0
 30
442.0
 70
   192
  0
VERTEX
  5
437
  8
0
 10
0.0
 20
0.0
 30
0.0
 70
   128
 71
     1
 72
     2
 73
     4
  0
VERTEX
  5
438
  8
0
 10
0.0
 20
0.0
 30
0.0
 70
   128
 71
     4
 72
     2
 73
     3
  0
SEQEND
  5
439
  8
LAYER1
 62
     7
  0
POLYLINE
  5
43A
  8
LAYER1
 62
     7
 66
     1
 10
0.0
 20
0.0
 30
0.0
 70
    64
 71
     4
 72
     2
  0
VERTEX
  5
43B
  8
0
 10
-603.0
 20
-8.0
 30
442.0
 70
   192
  0
VERTEX
  5
43C
  8
0
 10
-603.0
 20
-2.0
 30
442.0
 70
   192
  0
VERTEX
  5
43D
  8
0
 10
-603.0
 20
-2.0
 30
2.0
 70
   192
  0
VERTEX
  5
43E
  8
0
 10
-603.0
 20
-8.0
 30
2.0
 70
   192
  0
VERTEX
  5
43F
  8
0
 10
0.0
 20
0.0
 30
0.0
 70
   128
 71
     2
 72
     3
 73
     1
  0
VERTEX
  5
440
  8
0
 10
0.0
 20
0.0
 30
0.0
 70
   128
 71
     1
 72
     3
 73
     4
  0
SEQEND
  5
441
  8
LAYER1
 62
     7
  0
POLYLINE
  5
442
  8
LAYER1
 62
     7
 66
     1
 10
0.0
 20
0.0
 30
0.0
 70
    64
 71
     4
 72
     2
  0
VERTEX
  5
443
  8
0
 10
-603.0
 20
-8.0
 30
2.0
 70
   192
  0
VERTEX
  5
444
  8
0
 10
-603.0
 20
-2.0
 30
2.0
 70
   192
  0
VERTEX
  5
445
  8
0
 10
-601.0
 20
-2.0
 30
-0.0000000000000288
 70
   192
  0
VERTEX
  5
446
  8
0
 10
-601.0
 20
-8.0
 30
0.0000000000000429
 70
   192
  0
VERTEX
  5
447
  8
0
 10
0.0
 20
0.0
 30
0.0
 70
   128
 71
     2
 72
     3
 73
     1
  0
VERTEX
  5
448
  8
0
 10
0.0
 20
0.0
 30
0.0
 70
   128
 71
     1
 72
     3
 73
     4
  0
SEQEND
  5
449
  8
LAYER1
 62
     7
  0
POLYLINE
  5
44A
  8
LAYER1
 62
     7
 66
     1
 10
0.0
 20
0.0
 30
0.0
 70
    64
 71
     3
 72
     1
  0
VERTEX
  5
44B
  8
0
 10
-603.0
 20
-8.0
 30
2.0
 70
   192
  0
VERTEX
  5
44C
  8
0
 10
-601.0
 20
-8.0
 30
0.0000000000000429
 70
   192
  0
VERTEX
  5
44D
  8
0
 10
-601.0
 20
-10.0
 30
2.0
 70
   192
  0
VERTEX
  5
44E
  8
0
 10
0.0
 20
0.0
 30
0.0
 70
   128
 71
     1
 72
     2
 73
     3
  0
SEQEND
  5
44F
  8
LAYER1
 62
     7
  0
POLYLINE
  5
450
  8
LAYER1
 62
     7
 66
     1
 10
0.0
 20
0.0
 30
0.0
 70
    64
 71
     4
 72
     2
  0
VERTEX
  5
451
  8
0
 10
601.0
 20
-10.0
 30
2.0
 70
   192
  0
VERTEX
  5
452
  8
0
 10
-601.0
 20
-10.0
 30
2.0
 70
   192
  0
VERTEX
  5
453
  8
0
 10
-601.0
 20
-8.0
 30
0.0000000000000429
 70
   192
  0
VERTEX
  5
454
  8
0
 10
601.0
 20
-8.0
 30
0.0
 70
   192
  0
VERTEX
  5
455
  8
0
 10
0.0
 20
0.0
 30
0.0
 70
   128
 71
     2
 72
     3
 73
     1
  0
VERTEX
  5
456
  8
0
 10
0.0
 20
0.0
 30
0.0
 70
   128
 71
     1
 72
     3
 73
     4
  0
SEQEND
  5
457
  8
LAYER1
 62
     7
  0
POLYLINE
  5
458
  8
LAYER1
 62
     7
 66
     1
 10
0.0
 20
0.0
 30
0.0
 70
    64
 71
     3
 72
     1
  0
VERTEX
  5
459
  8
0
 10
603.0
 20
-8.0
 30
2.0
 70
   192
  0
VERTEX
  5
45A
  8
0
 10
601.0
 20
-10.0
 30
2.0
 70
   192
  0
VERTEX
  5
45B
  8
0
 10
601.0
 20
-8.0
 30
0.0
 70
   192
  0
VERTEX
  5
45C
  8
0
 10
0.0
 20
0.0
 30
0.0
 70
   128
 71
     1
 72
     2
 73
     3
  0
SEQEND
  5
45D
  8
LAYER1
 62
     7
  0
POLYLINE
  5
45E
  8
LAYER1
 62
     7
 66
     1
 10
0.0
 20
0.0
 30
0.0
 70
    64
 71
     4
 72
     2
  0
VERTEX
  5
45F
  8
0
 10
601.0
 20
-8.0
 30
0.0
 70
   192
  0
VERTEX
  5
460
  8
0
 10
601.0
 20
-2.0
 30
0.0
 70
   192
  0
VERTEX
  5
461
  8
0
 10
603.0
 20
-2.0
 30
2.0
 70
   192
  0
VERTEX
  5
462
  8
0
 10
603.0
 20
-8.0
 30
2.0
 70
   192
  0
VERTEX
  5
463
  8
0
 10
0.0
 20
0.0
 30
0.0
 70
   128
 71
     1
 72
     2
 73
     4
  0
VERTEX
  5
464
  8
0
 10
0.0
 20
0.0
 30
0.0
 70
   128
 71
     4
 72
     2
 73
     3
  0
SEQEND
  5
465
  8
LAYER1
 62
     7
  0
POLYLINE
  5
466
  8
LAYER1
 62
     7
 66
     1
 10
0.0
 20
0.0
 30
0.0
 70
    64
 71
     4
 72
     2
  0
VERTEX
  5
467
  8
0
 10
603.0
 20
-8.0
 30
442.0
 70
   192
  0
VERTEX
  5
468
  8
0
 10
603.0
 20
-8.0
 30
2.0
 70
   192
  0
VERTEX
  5
469
  8
0
 10
603.0
 20
-2.0
 30
2.0
 70
   192
  0
VERTEX
  5
46A
  8
0
 10
603.0
 20
-2.0
 30
442.0
 70
   192
  0
VERTEX
  5
46B
  8
0
 10
0.0
 20
0.0
 30
0.0
 70
   128
 71
     2
 72
     3
 73
     1
  0
VERTEX
  5
46C
  8
0
 10
0.0
 20
0.0
 30
0.0
 70
   128
 71
     1
 72
     3
 73
     4
  0
SEQEND
  5
46D
  8
LAYER1
 62
     7
  0
POLYLINE
  5
46E
  8
LAYER1
 62
     7
 66
     1
 10
0.0
 20
0.0
 30
0.0
 70
    64
 71
     4
 72
     2
  0
VERTEX
  5
46F
  8
0
 10
603.0
 20
-8.0
 30
442.0
 70
   192
  0
VERTEX
  5
470
  8
0
 10
603.0
 20
-2.0
 30
442.0
 70
   192
  0
VERTEX
  5
471
  8
0
 10
601.0
 20
-2.0
 30
443.9999694824219
 70
   192
  0
VERTEX
  5
472
  8
0
 10
601.0
 20
-8.0
 30
443.9999694824219
 70
   192
  0
VERTEX
  5
473
  8
0
 10
0.0
 20
0.0
 30
0.0
 70
   128
 71
     1
 72
     2
 73
     4
  0
VERTEX
  5
474
  8
0
 10
0.0
 20
0.0
 30
0.0
 70
   128
 71
     4
 72
     2
 73
     3
  0
SEQEND
  5
475
  8
LAYER1
 62
     7
  0
POLYLINE
  5
476
  8
LAYER1
 62
     7
 66
     1
 10
0.0
 20
0.0
 30
0.0
 70
    64
 71
     3
 72
     1
  0
VERTEX
  5
477
  8
0
 10
601.0
 20
-8.0
 30
443.9999694824219
 70
   192
  0
VERTEX
  5
478
  8
0
 10
601.0
 20
-10.0
 30
442.0
 70
   192
  0
VERTEX
  5
479
  8
0
 10
603.0
 20
-8.0
 30
442.0
 70
   192
  0
VERTEX
  5
47A
  8
0
 10
0.0
 20
0.0
 30
0.0
 70
   128
 71
     1
 72
     2
 73
     3
  0
SEQEND
  5
47B
  8
LAYER1
 62
     7
  0
POLYLINE
  5
47C
  8
LAYER1
 62
     7
 66
     1
 10
0.0
 20
0.0
 30
0.0
 70
    64
 71
     4
 72
     2
  0
VERTEX
  5
47D
  8
0
 10
601.0
 20
-10.0
 30
442.0
 70
   192
  0
VERTEX
  5
47E
  8
0
 10
601.0
 20
-10.0
 30
2.0
 70
   192
  0
VERTEX
  5
47F
  8
0
 10
603.0
 20
-8.0
 30
2.0
 70
   192
  0
VERTEX
  5
480
  8
0
 10
603.0
 20
-8.0
 30
442.0
 70
   192
  0
VERTEX
  5
481
  8
0
 10
0.0
 20
0.0
 30
0.0
 70
   128
 71
     1
 72
     2
 73
     4
  0
VERTEX
  5
482
  8
0
 10
0.0
 20
0.0
 30
0.0
 70
   128
 71
     4
 72
     2
 73
     3
  0
SEQEND
  5
483
  8
LAYER1
 62
     7
  0
POLYLINE
  5
484
  8
LAYER1
 62
     7
 66
     1
 10
0.0
 20
0.0
 30
0.0
 70
    64
 71
     4
 72
     2
  0
VERTEX
  5
485
  8
0
 10
-601.0
 20
-10.0
 30
442.0
 70
   192
  0
VERTEX
  5
486
  8
0
 10
601.0
 20
-10.0
 30
442.0
 70
   192
  0
VERTEX
  5
487
  8
0
 10
601.0
 20
-8.0
 30
443.9999694824219
 70
   192
  0
VERTEX
  5
488
  8
0
 10
-601.0
 20
-8.0
 30
443.9999694824219
 70
   192
  0
VERTEX
  5
489
  8
0
 10
0.0
 20
0.0
 30
0.0
 70
   128
 71
     1
 72
     2
 73
     4
  0
VERTEX
  5
48A
  8
0
 10
0.0
 20
0.0
 30
0.0
 70
   128
 71
     4
 72
     2
 73
     3
  0
SEQEND
  5
48B
  8
LAYER1
 62
     7
  0
POLYLINE
  5
48C
  8
LAYER1
 62
     7
 66
     1
 10
0.0
 20
0.0
 30
0.0
 70
    64
 71
     4
 72
     2
  0
VERTEX
  5
48D
  8
0
 10
601.0
 20
-2.0
 30
443.9999694824219
 70
   192
  0
VERTEX
  5
48E
  8
0
 10
-601.0
 20
-2.0
 30
443.9999694824219
 70
   192
  0
VERTEX
  5
48F
  8
0
 10
-601.0
 20
-8.0
 30
443.9999694824219
 70
   192
  0
VERTEX
  5
490
  8
0
 10
601.0
 20
-8.0
 30
443.9999694824219
 70
   192
  0
VERTEX
  5
491
  8
0
 10
0.0
 20
0.0
 30
0.0
 70
   128
 71
     1
 72
     2
 73
     4
  0
VERTEX
  5
492
  8
0
 10
0.0
 20
0.0
 30
0.0
 70
   128
 71
     4
 72
     2
 73
     3
  0
SEQEND
  5
493
  8
LAYER1
 62
     7
  0
POLYLINE
  5
494
  8
LAYER1
 62
     7
 66
     1
 10
0.0
 20
0.0
 30
0.0
 70
    64
 71
     4
 72
     2
  0
VERTEX
  5
495
  8
0
 10
-601.0
 20
-2.0
 30
443.9999694824219
 70
   192
  0
VERTEX
  5
496
  8
0
 10
601.0
 20
-2.0
 30
443.9999694824219
 70
   192
  0
VERTEX
  5
497
  8
0
 10
601.0
 20
0.0
 30
442.0
 70
   192
  0
VERTEX
  5
498
  8
0
 10
-601.0
 20
0.0
 30
442.0
 70
   192
  0
VERTEX
  5
499
  8
0
 10
0.0
 20
0.0
 30
0.0
 70
   128
 71
     1
 72
     2
 73
     4
  0
VERTEX
  5
49A
  8
0
 10
0.0
 20
0.0
 30
0.0
 70
   128
 71
     4
 72
     2
 73
     3
  0
SEQEND
  5
49B
  8
LAYER1
 62
     7
  0
POLYLINE
  5
49C
  8
LAYER1
 62
     7
 66
     1
 10
0.0
 20
0.0
 30
0.0
 70
    64
 71
     3
 72
     1
  0
VERTEX
  5
49D
  8
0
 10
-603.0
 20
-2.0
 30
442.0
 70
   192
  0
VERTEX
  5
49E
  8
0
 10
-601.0
 20
-2.0
 30
443.9999694824219
 70
   192
  0
VERTEX
  5
49F
  8
0
 10
-601.0
 20
0.0
 30
442.0
 70
   192
  0
VERTEX
  5
4A0
  8
0
 10
0.0
 20
0.0
 30
0.0
 70
   128
 71
     1
 72
     2
 73
     3
  0
SEQEND
  5
4A1
  8
LAYER1
 62
     7
  0
POLYLINE
  5
4A2
  8
LAYER1
 62
     7
 66
     1
 10
0.0
 20
0.0
 30
0.0
 70
    64
 71
     4
 72
     2
  0
VERTEX
  5
4A3
  8
0
 10
-601.0
 20
0.0
 30
442.0
 70
   192
  0
VERTEX
  5
4A4
  8
0
 10
-601.0
 20
0.0000000000000297
 30
2.0
 70
   192
  0
VERTEX
  5
4A5
  8
0
 10
-603.0
 20
-2.0
 30
2.0
 70
   192
  0
VERTEX
  5
4A6
  8
0
 10
-603.0
 20
-2.0
 30
442.0
 70
   192
  0
VERTEX
  5
4A7
  8
0
 10
0.0
 20
0.0
 30
0.0
 70
   128
 71
     1
 72
     2
 73
     4
  0
VERTEX
  5
4A8
  8
0
 10
0.0
 20
0.0
 30
0.0
 70
   128
 71
     4
 72
     2
 73
     3
  0
SEQEND
  5
4A9
  8
LAYER1
 62
     7
  0
POLYLINE
  5
4AA
  8
LAYER1
 62
     7
 66
     1
 10
0.0
 20
0.0
 30
0.0
 70
    64
 71
     3
 72
     1
  0
VERTEX
  5
4AB
  8
0
 10
-601.0
 20
0.0000000000000297
 30
2.0
 70
   192
  0
VERTEX
  5
4AC
  8
0
 10
-601.0
 20
-2.0
 30
-0.0000000000000288
 70
   192
  0
VERTEX
  5
4AD
  8
0
 10
-603.0
 20
-2.0
 30
2.0
 70
   192
  0
VERTEX
  5
4AE
  8
0
 10
0.0
 20
0.0
 30
0.0
 70
   128
 71
     1
 72
     2
 73
     3
  0
SEQEND
  5
4AF
  8
LAYER1
 62
     7
  0
POLYLINE
  5
4B0
  8
LAYER1
 62
     7
 66
     1
 10
0.0
 20
0.0
 30
0.0
 70
    64
 71
     4
 72
     2
  0
VERTEX
  5
4B1
  8
0
 10
601.0
 20
-2.0
 30
0.0
 70
   192
  0
VERTEX
  5
4B2
  8
0
 10
-601.0
 20
-2.0
 30
-0.0000000000000288
 70
   192
  0
VERTEX
  5
4B3
  8
0
 10
-601.0
 20
0.0000000000000297
 30
2.0
 70
   192
  0
VERTEX
  5
4B4
  8
0
 10
601.0
 20
0.0
 30
2.0
 70
   192
  0
VERTEX
  5
4B5
  8
0
 10
0.0
 20
0.0
 30
0.0
 70
   128
 71
     1
 72
     2
 73
     4
  0
VERTEX
  5
4B6
  8
0
 10
0.0
 20
0.0
 30
0.0
 70
   128
 71
     4
 72
     2
 73
     3
  0
SEQEND
  5
4B7
  8
LAYER1
 62
     7
  0
POLYLINE
  5
4B8
  8
LAYER1
 62
     7
 66
     1
 10
0.0
 20
0.0
 30
0.0
 70
    64
 71
     3
 72
     1
  0
VERTEX
  5
4B9
  8
0
 10
603.0
 20
-2.0
 30
2.0
 70
   192
  0
VERTEX
  5
4BA
  8
0
 10
601.0
 20
-2.0
 30
0.0
 70
   192
  0
VERTEX
  5
4BB
  8
0
 10
601.0
 20
0.0
 30
2.0
 70
   192
  0
VERTEX
  5
4BC
  8
0
 10
0.0
 20
0.0
 30
0.0
 70
   128
 71
     1
 72
     2
 73
     3
  0
SEQEND
  5
4BD
  8
LAYER1
 62
     7
  0
POLYLINE
  5
4BE
  8
LAYER1
 62
     7
 66
     1
 10
0.0
 20
0.0
 30
0.0
 70
    64
 71
     4
 72
     2
  0
VERTEX
  5
4BF
  8
0
 10
603.0
 20
-2.0
 30
442.0
 70
   192
  0
VERTEX
  5
4C0
  8
0
 10
603.0
 20
-2.0
 30
2.0
 70
   192
  0
VERTEX
  5
4C1
  8
0
 10
601.0
 20
0.0
 30
2.0
 70
   192
  0
VERTEX
  5
4C2
  8
0
 10
601.0
 20
0.0
 30
442.0
 70
   192
  0
VERTEX
  5
4C3
  8
0
 10
0.0
 20
0.0
 30
0.0
 70
   128
 71
     1
 72
     2
 73
     4
  0
VERTEX
  5
4C4
  8
0
 10
0.0
 20
0.0
 30
0.0
 70
   128
 71
     4
 72
     2
 73
     3
  0
SEQEND
  5
4C5
  8
LAYER1
 62
     7
  0
POLYLINE
  5
4C6
  8
LAYER1
 62
     7
 66
     1
 10
0.0
 20
0.0
 30
0.0
 70
    64
 71
     3
 72
     1
  0
VERTEX
  5
4C7
  8
0
 10
603.0
 20
-2.0
 30
442.0
 70
   192
  0
VERTEX
  5
4C8
  8
0
 10
601.0
 20
0.0
 30
442.0
 70
   192
  0
VERTEX
  5
4C9
  8
0
 10
601.0
 20
-2.0
 30
443.9999694824219
 70
   192
  0
VERTEX
  5
4CA
  8
0
 10
0.0
 20
0.0
 30
0.0
 70
   128
 71
     1
 72
     2
 73
     3
  0
SEQEND
  5
4CB
  8
LAYER1
 62
     7
  0
POLYLINE
  5
4CC
  8
LAYER1
 62
     7
 66
     1
 10
0.0
 20
0.0
 30
0.0
 70
    64
 71
     4
 72
     2
  0
VERTEX
  5
4CD
  8
0
 10
601.0
 20
-8.0
 30
0.0
 70
   192
  0
VERTEX
  5
4CE
  8
0
 10
-601.0
 20
-8.0
 30
0.0000000000000429
 70
   192
  0
VERTEX
  5
4CF
  8
0
 10
-601.0
 20
-2.0
 30
-0.0000000000000288
 70
   192
  0
VERTEX
  5
4D0
  8
0
 10
601.0
 20
-2.0
 30
0.0
 70
   192
  0
VERTEX
  5
4D1
  8
0
 10
0.0
 20
0.0
 30
0.0
 70
   128
 71
     2
 72
     3
 73
     1
  0
VERTEX
  5
4D2
  8
0
 10
0.0
 20
0.0
 30
0.0
 70
   128
 71
     1
 72
     3
 73
     4
  0
SEQEND
  5
4D3
  8
LAYER1
 62
     7
  0
VIEWPORT
  5
41
 67
     1
  8
0
 10
0.0
 20
0.0
 30
0.0
 40
1.0
 41
1.0
 68
     1
 69
     1
1001
ACAD
1000
MVIEW
1002
{
1070
    16
1010
0.0
1020
0.0
1030
0.0
1020
0.0
1030
0.0
1010
0.0
1020
0.0
1030
1.0
1020
0.0
1030
1.0
1040
0.0
1040
1.0
1040
0.0
1040
0.0
1040
50.0
1040
0.0
1040
0.0
1070
     0
1070
   100
1070
     0
1070
     3
1070
     0
1070
     0
1070
     0
1070
     0
1040
0.0
1040
0.0
1040
0.0
1040
0.5
1040
0.5
1040
0.0
1040
0.0
1070
     0
1002
{
1002
}
1002
}
  0
ENDSEC
  0
EOF
